Dropkick Murphys - Pipebomb On Lansdowne Chords & Tabs

 

Pipebomb On Lansdowne Chords & Tabs

Dropkick Murphys Chords & Tabs

Version: 1 Type: Bass Tab 0 ratings
1 star 2 stars 3 stars 4 stars 5 stars
comments

Pipebomb On Lansdowne Bass Tab

   
Tuning: Regular Tuning

Intro

G|------------------------|
D|---------------22222222-|
A|------------------------|
E|-22222222-(x9)----------|

Verse (0:12)

G|-------------------------------------------------------------------------|
D|----------------------------------------------------------------44444444-|
A|----------00000000-22222222-------------------00000000-22222222----------|
E|-22222222-------------------22222222-22222222----------------------------|

Chorus (0:21)

  A                                     B                                     
G|-------------------------------------|--------------------------------------|
D|-------------------------------------|--------------------------------------|
A|----------------------------33333333-|----------------------------3-3-3-2-0-| (B 2x)
E|-22222222-00000000-22222222----------|-22222222-00000000-22222222-----------|

Verse 2 (0:37)

G|-------------------------------------------------------------------------|
D|----------------------------------------------------------------44444444-|
A|----------00000000-22222222-------------------00000000-22222222----------|
E|-22222222-------------------22222222-22222222----------------------------|

G|-------------------------------------|
D|-44444444----------------------------|
A|----------00000000-22222222----------|
E|----------------------------22222222-|

Chorus (0:51)
[ Tab from: http://www.guitartabs.cc/tabs/d/dropkick_murphys/pipebomb_on_lansdowne_btab.html ]
  A                                     B                                     
G|-------------------------------------|--------------------------------------|
D|-------------------------------------|--------------------------------------|
A|----------------------------33333333-|----------------------------3-3-3-2-0-| (B 2x)
E|-22222222-00000000-22222222----------|-22222222-00000000-22222222-----------|

Verse 3 (1:06)
  A                          B                                     
G|--------------------------|-------------------------------------|
D|--------------------------|-------------------------------------|
A|--------------------------|----------00000000-22222222----------| (B 2x)
E|-22222222-(x10)--2/7-12\0-|-22222222-------------------22222222-|

Ending (1:29)

  A                                     B                                     
G|-------------------------------------|--------------------------------------|
D|-------------------------------------|--------------------------------------|
A|----------------------------33333333-|----------------------------3-3-3-2-0-| (B 2x)
E|-22222222-00000000-22222222----------|-22222222-00000000-22222222-----------|

  A           B    
G|-----------|--------------|
D|-----------|--------------|
A|-3-3-3-2-0-|-----3-2-0----| (A 2X)
E|-----------|-2---------2--|

First tab ever written up in my 2 years of playing Bass.  Bothered me when i saw someone
elses tab that was completely wrong so i figured it out myself.  Enjoy, email me any
corrections to "swatfett at hotmail dot com".
Comments