Dropkick Murphys - Nutty Boston Bruins Theme Chords & Tabs

 

Nutty Boston Bruins Theme Chords & Tabs

Dropkick Murphys Chords & Tabs

Version: 1 Type: Tab 0 ratings
1 star 2 stars 3 stars 4 stars 5 stars
comments

Nutty Boston Bruins Theme Tab

Dropkick Murphys - Nutty (Boston Bruins Theme)
Submitted By: Ryan Gallagher
EMail: Yorkmets13@aol.com


E|------------------||
B|--5-7---5-7-9/7---||
G|--6-6---6-6-8/6---||
D|--7-7---7-7-9/7---||
A|------------------||
E|------------------||

E|-10-12-10-9---------9-10-9-9-----------------------10-9--------------------||
B|------------12-10-9----------12-10-9-12-10-9----10------12-10-9------------||
G|---------------------------------------------11-----------------11-9-------||
D|---------------------------------------------------------------------------||
A|---------------------------------------------------------------------------||
E|---------------------------------------------------------------------------||

E|----9-10-9------------9-10-12-10-9----9-10-9----9--------------------------||
B|-12--------12-12-12-9--------------12--------12---12-10--------------------||
G|---------------------------------------------------------------------------||
D|---------------------------------------------------------------------------||
A|---------------------------------------------------------------------------||
E|---------------------------------------------------------------------------||

[ Tab from: http://www.guitartabs.cc/tabs/d/dropkick_murphys/nutty_boston_bruins_theme_tab.html ]
                        This part's wrong but it sounds ok.
E|----------------------10-10-9-10-10-9-10-10-9-10-12-10-9-------------------||
B|---------6-7-9-10-9-7------------------------------------12----------------||
G|-6h9-6h9-------------------------------------------------------------------||
D|---------------------------------------------------------------------------||
A|---------------------------------------------------------------------------||
E|---------------------------------------------------------------------------||


    This part isn't right but it's the best I could do.
E|---------------------------------------------------------------------------||
B|---------------------------------------------------------------------------||
G|---------------------------------------------------------------------------||
D|-11-11/12-11/12-11/12-11/12-13/14-11/12-11/12-11/12-11/12------------------||
A|---------------------------------------------------------------------------||
E|---------------------------------------------------------------------------||

E|-------9-10-9------------9-10-12-10-9----9-10-9----9-----------------------||
B|-12-12--------12-12-12-9--------------12--------12---12-10-----------------||
G|---------------------------------------------------------------------------||
D|---------------------------------------------------------------------------||
A|---------------------------------------------------------------------------||
E|---------------------------------------------------------------------------||

E|----------------------9-9-10-9-9-10-10-10-12-10-10-12----------------------||
B|---------6-7-9-10-9-7------------------------------------------------------||
G|-6h9-6h9-------------------------------------------------------------------||
D|---------------------------------------------------------------------------||
A|---------------------------------------------------------------------------||
E|---------------------------------------------------------------------------||

E|------------------||
B|----5-------------||
G|--5-6-------------||
D|--6-7-------------||
A|------------------||
E|------------------||
Comments