Dropkick Murphys - Noble Chords & Tabs

 

Noble Chords & Tabs

Dropkick Murphys Chords & Tabs

Version: 1 Type: Tab 0 ratings
1 star 2 stars 3 stars 4 stars 5 stars
comments

Noble Tab

   
Band: Dropkick Murphys
Song: Noble
Album: Do or Die
Tabber: clark@theoddmenout.com

()= bass only note
*= mute chord

Intro:
e--------------------------------------------------|
B--------------------------------------------------|
G--7--7-7-7-7--------------------------------------| x4
D--7--7-7-7-7--4--4-4-4-4--9--9-9-9-9--7--7-7-7-7--|
A--5--5-5-5-5--4--4-4-4-4--9--9-9-9-9--7--7-7-7-7--|
E--------------2--2-2-2-2--7--7-7-7-7--5--5-5-5-5--|

e-----------------------------------------------|
B----------------10--10-10--10-10--8--8-8--8-8--|
G--7-7-7--7-7-7---------------------------------| x2
D-----------------------------------------------|
A-----------------------------------------------|
E-----------------------------------------------|
 (second guitar plays this after two of the first riff)
[ Tab from: http://www.guitartabs.cc/tabs/d/dropkick_murphys/noble_tab.html ]
Verse 1:
D           (F#)                (B)               (A)
You grew up honest and straight, always one of the guys 
(D)                         (F#)            (B)              (A)
The laughs, the brews, good friends forever "Drinking Camaraderie," 
D                           F#              B            A
But then one night you were stolen from us, gone forever lost 
D                 F#                       B                 A
Stolen away in an Ashmont Second, and I'll never forget, the cost
G* F#
   Number One!  

Chorus:
D  B A
No-o-ble- He was a kid from the neighborhood 
D             B
Cut down in a brutal fight 
     A
On a cold and lonely Ashmont night

Verse 2:
D               (F#)                    (B)             (A)
Growing up in a turbulent neighborhood, he always stood upright 
(D)                           (F#)            (B)             (A)
When things would turn for the wrongful doing, Rob went to the right 
D                F#                 B                   A
But he was never given a chance to traverse down life's road 
D                      F#                B                    A
Now with all these put into perspective, Noble this one's for you  
G* F#
   Number One!

Chorus x2

Intro x2

Bridge: (all bass)
Never forget the great person you were, the pain and loss still burn
So much you had, but never realized, it never came your turn

Chorus 2: (key change)
e  C# B
No-o-ble- He was a kid from the neighborhood x3
e             C#
Cut down in a brutal fight 
     B
On a cold and lonely Ashmont night

That's it! For suggestions, corrections, and requests, email me:
                     oddmenout4@yahoo.com
Comments