Dropkick Murphys - Gonna Be A Blackout Tonight Chords & Tabs

 

Gonna Be A Blackout Tonight Chords & Tabs

Dropkick Murphys Chords & Tabs

Version: 2 Type: Bass Tab 0 ratings
1 star 2 stars 3 stars 4 stars 5 stars
comments

Gonna Be A Blackout Tonight Bass Tab

Band: Dropkick Murphys
Song: Gonna Be A Blackout
Bassist: Ken Casey
Please Rate!!!

Everything Should Be there just not in order
Intro: x3          
G|---------------|x3|--------|
D|-----9---007970|x3|--------|
A|-777---7-------|x3|-------5|
E|---------------|x3|-5-5-7--|

Break
[ Tab from: http://www.guitartabs.cc/tabs/d/dropkick_murphys/gonna_be_a_blackout_tonight_btab_ver_2.html ]
Verse
G|-----------------------------------------------|
D|-----------------------------------------------|
A|-7(x8)-5(x8)-7(x13)-567-7(x8)-5(x8)------------|
E|-----------------------------------5(x8)-7(x8)-|

Chorus
G|------------------------------------------------|
D|------------------------------------------------|
A|-5(x8)-----5(x8)-----7(x16)-5/7(x6)-5(x20)-5567-|
E|------5(x8)-----5(x8)---------------------------|

Bridge
G|------------------------------|
D|------------------------------|
A|-7~-5~-------7~-5~------------|
E|-------5~-7~---------5~-77777-|

Comments