Dropkick Murphys - Fields Of Athenry Chords & Tabs

 

Fields Of Athenry Chords & Tabs

Dropkick Murphys Chords & Tabs

Version: 2 Type: Tab 0 ratings
1 star 2 stars 3 stars 4 stars 5 stars
comments

Fields Of Athenry Tab

Song: Fields Of Athenry
By: Dropkick Murphy's
Tabbed By: Joshua Watson

(Yeah, I know, I totally screwed up and the first tab I submitted, here's the right one)

Intro
(Let Ring)
---------------------------------------
---------------------------------------
-------------1111-0--------------------
-3333--5-3----------3--1--1------------
---------------------------------------
---------------------------------------


Verse
1st & 2nd time PM
Verse after guitar solo play open
PM***********************************************************
-------------------------------------------------------------
-------------------------------------------------------------
-8-888--88-8-----------------8-888--88-8---3-333--33-3-------
-8-888--88-8---6-666--66-6---8-888--88-8---3-333--33-3-------
-6-666--66-6---6-666--66-6---6-666--66-6---1-111--11-1-------
---------------4-444--44-4-----------------------------------
On lonely...

PM*********************************************
-----------------------------------------------
-----------------------------------------------
-8-888--88-8-----------------3-333--33-3-------
-8-888--88-8---6-666--66-6---3-333--33-3-------
-6-666--66-6---6-666--66-6---1-111--11-1-------
---------------4-444--44-4---------------------
Micheal they have...

PM***********************************************************
-------------------------------------------------------------
-------------------------------------------------------------
-8-888--88-8-----------------8-888--88-8---3-333--33-3-------
-8-888--88-8---6-666--66-6---8-888--88-8---3-333--33-3-------
-6-666--66-6---6-666--66-6---6-666--66-6---1-111--11-1-------
---------------4-444--44-4-----------------------------------
For you stole...

PM*********************************************
-----------------------------------------------
-----------------------------------------------
-3-333--33-3--3-333--33-3---8-888--88-8--------
-3-333--33-3--3-333--33-3---8-888--88-8--------
-1-111--11-1--1-111--11-1---6-666--66-6--------
-----------------------------------------------
Now A prison...

[ Tab from: http://www.guitartabs.cc/tabs/d/dropkick_murphys/fields_of_athenry_tab_ver_2.html ]
Chours
------------------------------------------
------------------------------------------
-88888888------------88888888--55555555---
-88888888--66666666--88888888--55555555---
-66666666--66666666--66666666--33333333---
-----------44444444-----------------------
Low lie...


------------------------------------------
------------------------------------------
-88888888------------33333333--33333333---
-88888888--66666666--33333333--33333333---
-66666666--66666666--11111111--11111111---
-----------44444444-----------------------
For once...

------------------------------------------
------------------------------------------
-88888888------------88888888--33333333---
-88888888--66666666--88888888--33333333---
-66666666--66666666--66666666--11111111---
-----------44444444-----------------------
Our love...

-------------------------------------------------
-------------------------------------------------
-33333333--33333333--88888888--88888888----------
-33333333--33333333--88888888--88888888----------
-11111111--11111111--66666666--66666666----------
-------------------------------------------------
So lonely..



Solo
-------------------------------------------------------------
-------------------------------------------------------------
-3---5-3-1---0--0---------0--00---0---3---1-1---0------------
--------------3-----1-1-3-------3----------------3---1-3-----
-------------------------------------------------------------
-------------------------------------------------------------


------------------------------------------------------------------
------------------------------------------------------------------
-3-3--5-3-1---0--0---1-1-------------0---1-1--0-------------------
--------------3---------1-3---3-3-----3--------3-1-1--------3-3---
------------------------------------------------------------------
------------------------------------------------------------------

-------------------
-------------------
-0---1-1--0--------
--3--------3-1-1--
-------------------
-------------------

Chords At End Of Bagpipe Solo
PM***********************************************************
-------------------------------------------------------------
-------------------------------------------------------------
-8-888--88-8-----------------8-888--88-8---3-333--33-3-------
-8-888--88-8---6-666--66-6---8-888--88-8---3-333--33-3-------
-6-666--66-6---6-666--66-6---6-666--66-6---1-111--11-1-------
---------------4-444--44-4-----------------------------------



*Order*

Intro
Verse (PM)
Chours
Verse (PM)
Chours
Solo
Verse (Open)
Bagpipe Solo
Chours
Comments