Dropkick Murphys - Cadence To Arms Chords & Tabs

 

Cadence To Arms Chords & Tabs

Dropkick Murphys Chords & Tabs

Version: 1 Type: Tab 0 ratings
1 star 2 stars 3 stars 4 stars 5 stars
comments

Cadence To Arms Tab

   
Cadence To Arms
Dropkick Murphys

A                D          A
----------------------------------
-----------------10-10-9-10-------
-------4-6---6-9------------9-6---
-7-5-7-----7--------------------7-
----------------------------------
----------------------------------

D      A         E
---------------------------------
---7-------------------7---------
-7---7-6-9-6-----9-9-9---9-7-6---
-------------7-9---------------9-
---------------------------------
---------------------------------

[ Tab from: http://www.guitartabs.cc/tabs/d/dropkick_murphys/cadence_to_arms_tab.html ]
----------------------------------
-----------------10-10-9-10-------
-------4-6---6-9------------9-6---
-7-5-7-----7--------------------7-
----------------------------------
----------------------------------


---------------------------------
---7-----------------------------
-7---7-6-9-6---------------------
-------------7-9-7-9-7-----------
---------------------------------
---------------------------------


----------------------------------------
-----10-10-9-10-------10-10-9-10--------
-6-9------------9-6--------------9-6----
--------------------7----------------7--
----------------------------------------
----------------------------------------


------------------------------------
-10-10-9-7-10-9-7-10-9-7------------
-------------------------9-7-6------
-------------------------------9-7--
------------------------------------
------------------------------------


Comments