Dropkick Murphys - Burden Chords & Tabs

 

Burden Chords & Tabs

Dropkick Murphys Chords & Tabs

Version: 1 Type: Tab 0 ratings
1 star 2 stars 3 stars 4 stars 5 stars
comments

Burden Tab

   
-------------------------------------------------------------------------------
			     The Burden - Dropkick Murphys
-------------------------------------------------------------------------------
Tabbed by: Chris N.	
Email: rumble_in_brighton123@yahoo.com

Tuning: Standard

Intro: First Time only acoustic then Electric.
e|--2-2-2-2-2-2---3-3---2-2--2-2-2-2-2-2---3-3---2-2--2-2-2-2-2-2---3-3------|
B|--3-3-3-3-3-3---3-3---3-3--3-3-3-3-3-3---3-3---3-3--3-3-3-3-3-3---3-3------|
G|--2-2-2-2-2-2---0-0---2-2--2-2-2-2-2-2---0-0---2-2--2-2-2-2-2-2---0-0------|
D|--0-0-0-0-0-0---0-0---0-0--0-0-0-0-0-0---0-0---0-0--0-0-0-0-0-0---0-0------|
A|----------------2-2----------------------2-2----------------------2-2------|
E|----------------3-3----------------------3-3----------------------3-3------|

e|----------------3-3--------------------------------------------------------|
B|--1-1-1-1-1-1---3-3--------------------------------------------------------|
G|--0-0-0-0-0-0---0-0--------------------------------------------------------| x2
D|--2-2-2-2-2-2---0-0--------------------------------------------------------|
A|--3-3-3-3-3-3---2-2--------------------------------------------------------|
E|----------------3-3--------------------------------------------------------|

Verse: Both Guitars
e|--2-2-2-2---3-3---2--2-2-2---3-3---2--2-2-2---3-----------3---3-3----------|
B|--3-3-3-3---3-3---3--3-3-3---3-3---3--3-3-3---3---1-1-1---3---3-3----------|
G|--2-2-2-2---0-0---2--2-2-2---0-0---2--2-2-2---0---0-0-0---0---0-0----------| x2
D|--0-0-0-0---0-0---0--0-0-0---0-0---0--0-0-0---0---2-2-2---0---0-0----------|
A|------------2-2--------------2-2--------------2---3-3-3---2---2-2----------|
E|------------3-3--------------3-3--------------3-----------3---3-3----------|
PM.........            ......           .....       .........                 

Chorus: Both Guitars
e|------------3-3-3---2-2-2-2-2-2-2-2----------------------------------------|
B|--1-1-1-1---3-3-3---3-3-3-3-3-3-3-3----------------------------------------|
G|--0-0-0-0---0-0-0---2-2-2-2-2-2-2-2----------------------------------------| x4 PM only first 2 times.
D|--2-2-2-2---0-0-0---0-0-0-0-0-0-0-0----------------------------------------|
A|--3-3-3-3---2-2-2----------------------------------------------------------|
E|------------3-3-3----------------------------------------------------------|
PM...................................                                        

Interlude: Both Guitars
e|--2-2-2-2-2-2---3-3---2-2--2-2-2-2-2-2---3-3---2-2--2-2-2-2-2-2---3-3------|
B|--3-3-3-3-3-3---3-3---3-3--3-3-3-3-3-3---3-3---3-3--3-3-3-3-3-3---3-3------|
G|--2-2-2-2-2-2---0-0---2-2--2-2-2-2-2-2---0-0---2-2--2-2-2-2-2-2---0-0------|
D|--0-0-0-0-0-0---0-0---0-0--0-0-0-0-0-0---0-0---0-0--0-0-0-0-0-0---0-0------|
A|----------------2-2----------------------2-2----------------------2-2------|
E|----------------3-3----------------------3-3----------------------3-3------|

e|----------------3-3--------------------------------------------------------|
B|--1-1-1-1-1-1---3-3--------------------------------------------------------|
G|--0-0-0-0-0-0---0-0--------------------------------------------------------| x1
D|--2-2-2-2-2-2---0-0--------------------------------------------------------|
A|--3-3-3-3-3-3---2-2--------------------------------------------------------|
E|----------------3-3--------------------------------------------------------|

Verse: Both Guitars
e|--2-2-2-2---3-3---2--2-2-2---3-3---2--2-2-2---3-----------3---3-3----------|
B|--3-3-3-3---3-3---3--3-3-3---3-3---3--3-3-3---3---1-1-1---3---3-3----------|
G|--2-2-2-2---0-0---2--2-2-2---0-0---2--2-2-2---0---0-0-0---0---0-0----------| x2
D|--0-0-0-0---0-0---0--0-0-0---0-0---0--0-0-0---0---2-2-2---0---0-0----------|
A|------------2-2--------------2-2--------------2---3-3-3---2---2-2----------|
E|------------3-3--------------3-3--------------3-----------3---3-3----------|
PM.........            ......           .....       .........                 

Chorus: Both Guitars
e|------------3-3-3---2-2-2-2-2-2-2-2----------------------------------------|
B|--1-1-1-1---3-3-3---3-3-3-3-3-3-3-3----------------------------------------|
G|--0-0-0-0---0-0-0---2-2-2-2-2-2-2-2----------------------------------------| x4 PM only first 2 times.
D|--2-2-2-2---0-0-0---0-0-0-0-0-0-0-0----------------------------------------|
A|--3-3-3-3---2-2-2----------------------------------------------------------|
E|------------3-3-3----------------------------------------------------------|
PM...................................                                        

Interlude: Both Guitars
e|--2-2-2-2-2-2---3-3---2-2--2-2-2-2-2-2---3-3---2-2--2-2-2-2-2-2---3-3------|
B|--3-3-3-3-3-3---3-3---3-3--3-3-3-3-3-3---3-3---3-3--3-3-3-3-3-3---3-3------|
G|--2-2-2-2-2-2---0-0---2-2--2-2-2-2-2-2---0-0---2-2--2-2-2-2-2-2---0-0------|
D|--0-0-0-0-0-0---0-0---0-0--0-0-0-0-0-0---0-0---0-0--0-0-0-0-0-0---0-0------|
A|----------------2-2----------------------2-2----------------------2-2------|
E|----------------3-3----------------------3-3----------------------3-3------|

e|----------------3-3--------------------------------------------------------|
B|--1-1-1-1-1-1---3-3--------------------------------------------------------|
G|--0-0-0-0-0-0---0-0--------------------------------------------------------| x1
D|--2-2-2-2-2-2---0-0--------------------------------------------------------|
A|--3-3-3-3-3-3---2-2--------------------------------------------------------|
E|----------------3-3--------------------------------------------------------|

Chorus: Both Guitars
e|------------3-3-3---2-2-2-2-2-2-2-2----------------------------------------|
B|--1-1-1-1---3-3-3---3-3-3-3-3-3-3-3----------------------------------------|
G|--0-0-0-0---0-0-0---2-2-2-2-2-2-2-2----------------------------------------| x4 PM only first 2 times.
D|--2-2-2-2---0-0-0---0-0-0-0-0-0-0-0----------------------------------------|
A|--3-3-3-3---2-2-2----------------------------------------------------------|
E|------------3-3-3----------------------------------------------------------|
PM...................................                                        
[ Tab from: http://www.guitartabs.cc/tabs/d/dropkick_murphys/burden_tab.html ]
Bridge: Guitar 1
e|---------------------------------------------------------------------------|
B|---------------------------------------------------------------------------|
G|--<5>----------------------------------------------------------------------|
D|-------<5>-----------------------------------------------------------------|
A|------------<5>------------------------------------------------------------|
E|---------------------------------------------------------------------------|
 | Guitar 2                                                                  | 
e|---------------------------------------------------------------------------|
B|---------------------------------------------------------------------------|
G|---------------7-7-7-7-7-7-7--5-5-5-5-5-5-5-----------------7-7-7-7-7-7-7--|
D|---------------7-7-7-7-7-7-7--5-5-5-5-5-5-5--5-5-5-5-5-5-5--7-7-7-7-7-7-7--|
A|---------------5-5-5-5-5-5-5--3-3-3-3-3-3-3--5-5-5-5-5-5-5--5-5-5-5-5-5-5--|
E|---------------------------------------------3-3-3-3-3-3-3-----------------|
PM                 ..   ..	 ..    ..       ..    ..       ..    ..     

  Guitar 1
e|---------------------------------------------------------------------------|
B|------------<7>------------------------------------------------------------|
G|------<7>------------------------------------------------------------------|
D|------------------<5>------------------------------------------------------|
A|------------------------<5>------------------------------------------------|
E|---------------------------------------------------------------------------|
 | Guitar 2                                                                  | 
e|---------------------------------------------------------------------------|
B|---------------------------------------------------------------------------|
G|---------------7-7-7-7-7-7-7--5-5-5-5-5-5-5-----------------7-7-7-7-7-7-7--|
D|---------------7-7-7-7-7-7-7--5-5-5-5-5-5-5--5-5-5-5-5-5-5--7-7-7-7-7-7-7--|
A|---------------5-5-5-5-5-5-5--3-3-3-3-3-3-3--5-5-5-5-5-5-5--5-5-5-5-5-5-5--|
E|---------------------------------------------3-3-3-3-3-3-3-----------------|
PM                 ..   ..	 ..    ..       ..    ..       ..    ..     

  Guitar 1
e|--------2-----------------------------3--------------2---------------------|
B|--------3--------------1--------------3--------------3---------------------|
G|--------2--------------0--------------0--------------2---------------------|
D|--------0--------------2--------------0--------------0---------------------|
A|-----------------------3--------------2------------------------------------|
E|--------------------------------------3------------------------------------|
 | Guitar 2                                                                  | 
e|---------------------------------------------------------------------------|
B|---------------------------------------------------------------------------|
G|--------7-7-7-7-7-7-7--5-5-5-5-5-5-5-----------------7-7-7-7-7-7-7---------|
D|--------7-7-7-7-7-7-7--5-5-5-5-5-5-5--5-5-5-5-5-5-5--7-7-7-7-7-7-7---------|
A|--------5-5-5-5-5-5-5--3-3-3-3-3-3-3--5-5-5-5-5-5-5--5-5-5-5-5-5-5---------|
E|--------------------------------------3-3-3-3-3-3-3------------------------|
PM          ..   ..	     ..    ..       ..    ..       ..    ..     

  Guitar 1
e|--------2-----------------------------3-----------------2------2-0---------|
B|--------3--------------1--------------3------------------------------------|
G|--------2--------------0--------------0--------------2-----2---------------|
D|--------0--------------2--------------0------------------------------------|
A|-----------------------3--------------2------------------------------------|
E|--------------------------------------3------------------------------------|
 | Guitar 2                                                                  | 
e|---------------------------------------------------------------------------|
B|---------------------------------------------------------------------------|
G|--------7-7-7-7-7-7-7--5-5-5-5-5-5-5-----------------7-7-7-7-7-7-7---------|
D|--------7-7-7-7-7-7-7--5-5-5-5-5-5-5--5-5-5-5-5-5-5--7-7-7-7-7-7-7---------|
A|--------5-5-5-5-5-5-5--3-3-3-3-3-3-3--5-5-5-5-5-5-5--5-5-5-5-5-5-5---------|
E|--------------------------------------3-3-3-3-3-3-3------------------------|
PM          ..   ..	     ..    ..       ..    ..       ..    ..     

  Guitar 1
e|--------2-----------------------------3--------------2---------------------|
B|--------3--------------1--------------3--------------3---------------------|
G|--------2--------------0--------------0--------------2---------------------|
D|--------0--------------2--------------0--------------0---------------------|
A|-----------------------3--------------2------------------------------------|
E|--------------------------------------3------------------------------------|
 | Guitar 2                                                                  | x2
e|---------------------------------------------------------------------------|
B|---------------------------------------------------------------------------|
G|--------7-7-7-7-7-7-7--5-5-5-5-5-5-5-----------------7-7-7-7-7-7-7---------|
D|--------7-7-7-7-7-7-7--5-5-5-5-5-5-5--5-5-5-5-5-5-5--7-7-7-7-7-7-7---------|
A|--------5-5-5-5-5-5-5--3-3-3-3-3-3-3--5-5-5-5-5-5-5--5-5-5-5-5-5-5---------|
E|--------------------------------------3-3-3-3-3-3-3------------------------|
PM          ..   ..	     ..    ..       ..    ..       ..    ..     

Verse: Both Guitars
e|--2-2-2-2-2-2---3-3---2-2--2-2-2-2-2-2---3-3---2-2--2-2-2-2-2-2---3-3------|
B|--3-3-3-3-3-3---3-3---3-3--3-3-3-3-3-3---3-3---3-3--3-3-3-3-3-3---3-3------|
G|--2-2-2-2-2-2---0-0---2-2--2-2-2-2-2-2---0-0---2-2--2-2-2-2-2-2---0-0------|
D|--0-0-0-0-0-0---0-0---0-0--0-0-0-0-0-0---0-0---0-0--0-0-0-0-0-0---0-0------|
A|----------------2-2----------------------2-2----------------------2-2------|
E|----------------3-3----------------------3-3----------------------3-3------|

e|----------------3-3--------------------------------------------------------|
B|--1-1-1-1-1-1---3-3--------------------------------------------------------|
G|--0-0-0-0-0-0---0-0--------------------------------------------------------| x2
D|--2-2-2-2-2-2---0-0--------------------------------------------------------|
A|--3-3-3-3-3-3---2-2--------------------------------------------------------|
E|----------------3-3--------------------------------------------------------|

Chorus: Both Guitars
e|------------3-3-3---2-2-2-2-2-2-2-2----------------------------------------|
B|--1-1-1-1---3-3-3---3-3-3-3-3-3-3-3----------------------------------------|
G|--0-0-0-0---0-0-0---2-2-2-2-2-2-2-2----------------------------------------| x5 PM only first 2 times.
D|--2-2-2-2---0-0-0---0-0-0-0-0-0-0-0----------------------------------------|
A|--3-3-3-3---2-2-2----------------------------------------------------------|
E|------------3-3-3----------------------------------------------------------|
PM...................................                                        

Outro: Both Guitars
e|--2-2-2-2-2-2---3-3---2-2--2-2-2-2-2-2---3-3---2-2--2-2-2-2-2-2---3-3------|
B|--3-3-3-3-3-3---3-3---3-3--3-3-3-3-3-3---3-3---3-3--3-3-3-3-3-3---3-3------|
G|--2-2-2-2-2-2---0-0---2-2--2-2-2-2-2-2---0-0---2-2--2-2-2-2-2-2---0-0------|
D|--0-0-0-0-0-0---0-0---0-0--0-0-0-0-0-0---0-0---0-0--0-0-0-0-0-0---0-0------|
A|----------------2-2----------------------2-2----------------------2-2------|
E|----------------3-3----------------------3-3----------------------3-3------|

End on
e|---2------|
B|---3------|
G|---2------|
D|---0------|
A|----------|
E|----------|




| /  slide up
| \  slide down
| h  hammer-on
| p  pull-off
| ~  vibrato
| < >  harmonic
| .  Palm Mute
===============================================================================
Comments