Dropkick Murphys - Barroom Heros Chords & Tabs

 

Barroom Heros Chords & Tabs

Dropkick Murphys Chords & Tabs

Version: 1 Type: Tab 0 ratings
1 star 2 stars 3 stars 4 stars 5 stars
comments

Barroom Heros Tab

BAND : DROPKICK MURPHYS
SONG : BARROOM HEROES
TABBED BY : QUINCY SLOAN

THE OTHER VERSION OF THIS SEEMS TO BE TOTALLY WRONG. HERE IS MY BETTER VERSION.
JUST 3 CHORDS-OH YES.

INTRO - play after the vocal intro
E :----------------------------------------------------------------------
B :----------------------------------------------------------------------
G :----------------------------------------------------------------------
D :-3-3-3-3-3-3-3-3--3-3-3-3-3-3-3-3--3-3-3-3-3-3-3-3--3-3-3-3-3-3-3-3---
A :-3-3-3-3-3-3-3-3--3-3-3-3-3-3-3-3--3-3-3-3-3-3-3-3--3-3-3-3-3-3-3-3---
E :-1-1-1-1-1-1-1-1--1-1-1-1-1-1-1-1--1-1-1-1-1-1-1-1--1-1-1-1-1-1-1-1---

VERSE
E :---------------------------------------------------------------------
B :---------------------------------------------------------------------
G :-----------------------------------3-3-3-3-3-3-3-3-------------------
D :-3-3-3-3-3-3-3-3--3-3-3-3-3-3-3-3--3-3-3-3-3-3-3-3--3-3-3-3-3-3-3-3--
A :-3-3-3-3-3-3-3-3--3-3-3-3-3-3-3-3--1-1-1-1-1-1-1-1--3-3-3-3-3-3-3-3--
E :-1-1-1-1-1-1-1-1--1-1-1-1-1-1-1-1-------------------1-1-1-1-1-1-1-1--
[ Tab from: http://www.guitartabs.cc/tabs/d/dropkick_murphys/barroom_heros_tab.html ]
E :----------------------------------------------------------------
B :----------------------------------------------------------------
G :-3-3-3-3-3-3-3-3-------------------5-5-5-5--3-3-3-3-------------
D :-3-3-3-3-3-3-3-3--3-3-3-3-3-3-3-3--5-5-5-5--3-3-3-3--3-3-3-3----
A :-1-1-1-1-1-1-1-1--3-3-3-3-3-3-3-3--3-3-3-3--1-1-1-1--3-3-3-3----
E :------------------1-1-1-1-1-1-1-1--------------------1-1-1-1----

CHORUS
E :---------------------------------------------------------------------
B :---------------------------------------------------------------------
G :-3-3-3-3-3-3-3-3-------------------5-5-5-5-5-5-5-5-------------------
D :-3-3-3-3-3-3-3-3--3-3-3-3-3-3-3-3--5-5-5-5-5-5-5-5--3-3-3-3-3-3-3-3--
A :-1-1-1-1-1-1-1-1--3-3-3-3-3-3-3-3--3-3-3-3-3-3-3-3--3-3-3-3-3-3-3-3--
E :------------------1-1-1-1-1-1-1-1-------------------1-1-1-1-1-1-1-1--

E :---------------------------------------------------------------
B :---------------------------------------------------------------
G :-3-3-3-3-3-3-3-3-------------------5-5-5-5--3-3-3-3------------
D :-3-3-3-3-3-3-3-3--3-3-3-3-3-3-3-3--5-5-5-5--3-3-3-3--3-3-3-3---
A :-1-1-1-1-1-1-1-1--3-3-3-3-3-3-3-3--3-3-3-3--1-1-1-1--3-3-3-3---
E :------------------1-1-1-1-1-1-1-1--------------------1-1-1-1---

THE MID-SECTION IS JUST F AND Bb PLAYED IN A STRANGE RHYTHM
Comments