Dropkick Murphys - Amazing Grace Chords & Tabs

 

Amazing Grace Chords & Tabs

Dropkick Murphys Chords & Tabs

Version: 1 Type: Tab 2 ratings
1 star 2 stars 3 stars 4 stars 5 stars
comments

Amazing Grace Tab

DROPKICK MURPHYS
"AMAZING GRACE"
From the album "The Gang's All Here"

*STANDARD TUNING*
(EADGBE)

~ = Let ring

This is a cool punk version of the classic hymn.  It starts out with a bagpipe riff, then guitar comes in with:

INTRO
E|--------------------------------------------------------------
B|--------------------------------------------------------------
G|--------------------------------------------------------------
D|--------------------------------------------------------------
A|--7-7-7-7-7-7-7-7-7-7-7-7-7-7-7-7-7-7-7-7-7-7-7-7-7-7-7-7-7-7-
E|--5-5-5-5-5-5-5-5-5-5-5-5-5-5-5-5-5-5-5-5-5-5-5-5-5-5-5-5-5-5-
P.M.. . . . . . . . . . . . . . . . . . . . . . . . . . . . . .

VERSE
E|-------------------------------------------------------------------------
B|-------------------------------------------------------------------------
G|-----------------6-6-6-6-6-6-6-6-4-4-2-2-2-2-2-2-------------------------
D|-7-7-7-7-7-7-7-7-6-6-6-6-6-6-6-6-4-4-2-2-2-2-2-2-4-4-2-2-2-2-2-2-2-2-----
A|-7-7-7-7-7-7-7-7-4-4-4-4-4-4-4-4-2-2-0-0-0-0-0-0-4-4-2-2-2-2-2-2-2-2-----
E|-5-5-5-5-5-5-5-5---------------------------------2-2-0-0-0-0-0-0-0-0-----
"Amazing grace..."

E|----------------------------------------------------------------------
B|----------------------------------------------------------------------
G|-----------------6-6-6-6-6-6-6-6-9-9-9-9-9-9-9-9-9-9-9-9-9-9-9-9-9----
D|-7-7-7-7-7-7-7-7-6-6-6-6-6-6-6-6-9-9-9-9-9-9-9-9-9-9-9-9-9-9-9-9-9----
A|-7-7-7-7-7-7-7-7-4-4-4-4-4-4-4-4-7-7-7-7-7-7-7-7-7-7-7-7-7-7-7-7-7----
E|-5-5-5-5-5-5-5-5------------------------------------------------------
"That saved..."

E|----------------------------------------------------------------------------
B|----------------------------------------------------------------------------
G|-6-6-9-9-9-9-9-9-9-9-6-6-6-6-6-6-6-6-4-4-2-2-2-2-2-2------------------------
D|-6-6-9-9-9-9-9-9-9-9-6-6-6-6-6-6-6-6-4-4-2-2-2-2-2-2-4-4-2-2-2-2-2-2-2-2----
A|-4-4-7-7-7-7-7-7-7-7-4-4-4-4-4-4-4-4-2-2-0-0-0-0-0-0-4-4-2-2-2-2-2-2-2-2----
E|-----------------------------------------------------2-2-0-0-0-0-0-0-0-0----
"I once..."

E|--------------------------------------------------------------------
B|--------------------------------------------------------------------
G|-----------------6-6-6-6-6-6-4-4-2-2-2-2-2-2-2-2-2-2-2-2-2-2-2------
D|-7-7-7-7-7-7-7-7-6-6-6-6-6-6-4-4-2-2-2-2-2-2-2-2-2-2-2-2-2-2-2------
A|-7-7-7-7-7-7-7-7-4-4-4-4-4-4-2-2-0-0-0-0-0-0-0-0-0-0-0-0-0-0-0------
E|-5-5-5-5-5-5-5-5---------------------------------------------------- X1
"Was blind..."

[ Tab from: http://www.guitartabs.cc/tabs/d/dropkick_murphys/amazing_grace_tab.html ]
BRIDGE
E|---------------------------------------------------------------------
B|---------------------------------------------------------------------
G|---------------------------------------------------------------------
D|-5-5-5-5-5-5-5-5-5-5-5-5-5-5-5-5-7-7-7-7-7-7-7-7-7-7-7-7-7-7-7-7-----
A|-5-5-5-5-5-5-5-5-5-5-5-5-5-5-5-5-7-7-7-7-7-7-7-7-7-7-7-7-7-7-7-7-----
E|-3-3-3-3-3-3-3-3-3-3-3-3-3-3-3-3-5-5-5-5-5-5-5-5-5-5-5-5-5-5-5-5----- X3

E|---------------------------------------------------------------------
B|---------------------------------------------------------------------
G|---------------------------------------------------------------------
D|-5-5-5-5-5-5-5-5-5-5-5-5-5-5-5-5-5-5-5-5-5-5-5-5-5-5-5-5-5-5-5-5-----
A|-5-5-5-5-5-5-5-5-5-5-5-5-5-5-5-5-5-5-5-5-5-5-5-5-5-5-5-5-5-5-5-5-----
E|-3-3-3-3-3-3-3-3-3-3-3-3-3-3-3-3-3-3-3-3-3-3-3-3-3-3-3-3-3-3-3-3----- X1


OUTRO VERSE
E|-------------------------------------------------------------------------
B|-------------------------------------------------------------------------
G|-----------------6-6-6-6-6-6-6-6-4-4-2-2-2-2-2-2-------------------------
D|-7-7-7-7-7-7-7-7-6-6-6-6-6-6-6-6-4-4-2-2-2-2-2-2-4-4-2-2-2-2-2-2-2-2-----
A|-7-7-7-7-7-7-7-7-4-4-4-4-4-4-4-4-2-2-0-0-0-0-0-0-4-4-2-2-2-2-2-2-2-2-----
E|-5-5-5-5-5-5-5-5---------------------------------2-2-0-0-0-0-0-0-0-0-----
"Amazing grace..."

E|----------------------------------------------------------------------
B|----------------------------------------------------------------------
G|-----------------6-6-6-6-6-6-6-6-9-9-9-9-9-9-9-9-9-9-9-9-9-9-9-9-9----
D|-7-7-7-7-7-7-7-7-6-6-6-6-6-6-6-6-9-9-9-9-9-9-9-9-9-9-9-9-9-9-9-9-9----
A|-7-7-7-7-7-7-7-7-4-4-4-4-4-4-4-4-7-7-7-7-7-7-7-7-7-7-7-7-7-7-7-7-7----
E|-5-5-5-5-5-5-5-5------------------------------------------------------
"That saved..."

E|----------------------------------------------------------------------------
B|----------------------------------------------------------------------------
G|-6-6-9-9-9-9-9-9-9-9-6-6-6-6-6-6-6-6-4-4-2-2-2-2-2-2------------------------
D|-6-6-9-9-9-9-9-9-9-9-6-6-6-6-6-6-6-6-4-4-2-2-2-2-2-2-4-4-2-2-2-2-2-2-2-2----
A|-4-4-7-7-7-7-7-7-7-7-4-4-4-4-4-4-4-4-2-2-0-0-0-0-0-0-4-4-2-2-2-2-2-2-2-2----
E|-----------------------------------------------------2-2-0-0-0-0-0-0-0-0----
"I once..."

E|--------------------------------------
B|--------------------------------------
G|-----------6----4----2~---------------
D|-7----7----6----4----2~---------------
A|-7----7----4----2----0~---------------
E|-5----5-------------------------------
"Was blind..."

SONG ORDER
INTRO X1
VERSE X1
BRIDGE X1
VERSE X1
BRIDGE X1
OUTRO VERSE X1

Comments