Dropbox - Wishbone Chords & Tabs

 

Wishbone Chords & Tabs

Dropbox Chords & Tabs

Version: 3 Type: Tab 0 ratings
1 star 2 stars 3 stars 4 stars 5 stars
comments

Wishbone Tab

tabbed by: matt h.
band: dropbox
song: wishbone

tuning: drop D

bend^    slide/ 

             intro/chorus

|-0-10-8-0-3p0--0-10-8-0-3p0--0-3-0-|
|-----------------------------0-3-0-|
|-----------------------------------|
|-----------------------------------|
|-----------------------------------|
|-----------------------------------|
[ Tab from: http://www.guitartabs.cc/tabs/d/dropbox/wishbone_tab_ver_3.html ]
|-0-10-8-0-3p0--0-10-8-0-3p0--4^----|
|-----------------------------4^----|
|-----------------------------------|
|-----------------------------------|
|-----------------------------------|
|-----------------------------------|

            verse

|-8/10-3-4--8/10-3-1-3^1-|
|-8/10-3-4--8/10-3-------|
|------------------------|
|------------------------|
|------------------------|
|------------------------|

          bridge

|-6-----10-----6-----10-|   
|-6-----10-----6-----10-|
|-----------------------|  
|-----------------------|    basically thats wat it is
|-----------------------|
|-----------------------|
                          

Thats it, i'm pretty sure its right. Enjoy!
Comments