Dropbox - Wishbone Chords & Tabs

 

Wishbone Chords & Tabs

Dropbox Chords & Tabs

Version: 2 Type: Tab 0 ratings
1 star 2 stars 3 stars 4 stars 5 stars
comments

Wishbone Tab

   
-----------------------------------------------------------------------------
			     WISHBONE - Dropbox
-----------------------------------------------------------------------------
www.dropboxmusic.com

Tabbed by: Shannon Dehne
Email: guitarist88061@yahoo.com

Tuning: Drop C
C,G,C,F,A,D

               Intro/Chorus
e|----------------------------------------------|
B|----------------------------------------------|
G|----------------------------------------------|
D|------------------------------3h5-3-----------|
A|-----5-3-0--------5-3-0-------3h5-3-----------|
E|--0--------5-3-0---------5-0--3h5-3-----------|

e|----------------------------------------------|
B|----------------------------------------------|
G|----------------------------------------------|
D|-------------------------------6--------------|
A|-----5-3-0---------5-3-0-------6--------------|
E|--0---------5-3-0---------5-0--6--------------|

                Verse
e|----------------------------------------------|
B|----------------------------------------------|
G|-5-5/7-10-10--5-5-7---------------------------|
D|-5-5/7-10-10--5-5-7---------------------------|
A|-3-3/5-8--8---3-3-5---------------------------|
E|----------------------------------------------|
[ Tab from: http://www.guitartabs.cc/tabs/d/dropbox/wishbone_tab_ver_2.html ]
e|----------------------------------------------|
B|----------------------------------------------|
G|---5-5/7-10-10--------------------------------|
D|---5-5/7-10-10-5-5-5h6-5-3--------------------|
A|---3-3/5-8--8--5-5-5h6-5-3--------------------|
E|---------------5-5-5h6-5-3--------------------|


You can also play the verse like this if you prefer:

D|--------------------------------------------|
A|--------------------------------------------|
F|--------------------------------------------|
C|-10-10h12-15-15-10-10-12--------------------|
G|-10-10h12-15-15-10-10-12--------------------|
C|-10-10h12-15-15-10-10-12--------------------|


D|-----------------------------------|
A|-----------------------------------|
F|-----------------------------------|
C|-10-10h12-15-15----5-5-5h6-5-3-----|
G|-10-10h12-15-15----5-5-5h6-5-3-----|
C|-10-10h12-15-15----5-5-5h6-5-3-----|
 


                 Bridge
e|----------------------------------------------|
B|-3----------- 11------------------------------|
G|-2----------- 10------------------------------|
D|-0------------8-------------------------------|
A|-0------------8-------------------------------|
E|-0------------8-------------------------------|

| /  slide up
| \  slide down
| h  hammer-on
| p  pull-off
| ~  vibrato
| +  harmonic
| x  Mute note
===========================================================================
Comments