Drengene Fra Angora - Blind Date Chords & Tabs

 

Blind Date Chords & Tabs

Drengene Fra Angora Chords & Tabs

Version: 1 Type: Tab 0 ratings
1 star 2 stars 3 stars 4 stars 5 stars
comments

Blind Date Tab

   
        Song: Blind Date
      Artist: Drengene Fra Angora
   Tabbed by: Ylle 
      E-mail: yllemanden@gmail.com
      Tuning: E A D G B E

Er næsten sikker på den er 100% korrekt. Men skulle du have nogle indvendinger, så skriv endelig.



Intro: F#m D |A E |
e|-----------------------|
B|--------2--3----5-2-0--|
G|------2-------2--------|   --- Den lille start solo.
D|--4-4------------------|
A|-----------------------|
E|-----------------------|

Vers: F#m E |D A |
[ Tab from: http://www.guitartabs.cc/tabs/d/drengene_fra_angora/blind_date_tab.html ]
Bro: D |E |F#m |E |D |E (Pause)

OmkvæD: F#m D |A E |
e|--------------|
B|--------------|
G|--------------|   --- Det lille overgangs riff.
D|--------------|
A|--4-2-0-------|
E|---------0-2--|

B-stykke: C#m |F#m |C#m |F#m |
e|---------|
B|---------|
G|---------|   --- Det lille overgangs riff (F#m |E |D |) til D akkorden.
D|------0--|
A|---------|
E|--2-0----|
          
          D |E |D |E |
e|---------|
B|---------|
G|---------|   --- Det lille overgangs riff (E |A |Bm |) til omkvædet.
D|---------|
A|----0-2--|
E|--0------|
Comments