Dredg - Tanbark Chords & Tabs

 

Tanbark Chords & Tabs

Dredg Chords & Tabs

Version: 1 Type: Tab 0 ratings
1 star 2 stars 3 stars 4 stars 5 stars
comments

Tanbark Tab

   
song:tanbark
artist:dredg
album:catch without arms
author:brandon gilbert
email:harp_harmonics@yahoo.com
aim:aim at bg

intro 
verse a
verse b
verse a
fill 1
verse b
fill 2
verse a
fill 1
screaming part(not sure)
pre-breakdown
breakdown
intro
verse a
fill 1

intro(with fingers)/verse a

|---------------|
|---------------|
|-3-13-11-10----|
|---------------|
|---------------|
|-2-12-10--9----| 

sometimes he plays the F#(first chord) an octave higher.



verse b

|------------|
|------------|
|-3-3-3-3----|
|------------|
|------------|
|-2-2-2-2----|


fill 1

|---------------------------------------------------------------------------|
|---------------------------------------------------------------------------|
|---------------------------------------------------------------------------|
|-4-4-4-4-4-4-4-4--6-6-6-6-6-6-6-6--7-7-7-7-7-7-7-7-11-11-11-11-11-11-11-11-|
|-4-4-4-4-4-4-4-4--6-6-6-6-6-6-6-6--7-7-7-7-7-7-7-7-11-11-11-11-11-11-11-11-|
|-2-2-2-2-2-2-2-2--4-4-4-4-4-4-4-4--5-5-5-5-5-5-5-5--9--9--9--9--9--9--9--9-|


fill 2

|----------------|
|----------------|
|-11S10-10-10----|
|----------------|
|--9S=8--8--8----|
|----------------|


screaming part

im not sure what mark is doing, i know the chord progression is F# to E though. 
all help is welcome, ill figure it out eventually.


pre-breakdown
[ Tab from: http://www.guitartabs.cc/tabs/d/dredg/tanbark_tab.html ]
|--------------------------------------------------------------------------------------------|
|--------------------------------------------------------------------------------------------|
|-10-10-10-10-10-10-10-10-10-10-10-10-10-10-10-10-11-11-11-11-11-11-11-11-13-13-13-13-13\----|
|--------------------------------------------------------------------------------------------|
|--8--8--8--8--8--8--8--8--8--8--8--8--8--8--8--8--9--9--9--9--9--9--9--9-11-11-11-11-11\----|
|--------------------------------------------------------------------------------------------|


breakdown

x=denotes the rest

|-------------------------------------------------------------------------|
|-------------------------------------------------------------------------|
|-3-3-3-3-x--3-x-3-3-3-x--3-3-3-3-x--3-x-3-3-3-3-x--3-x-3-3-3-x--3-3-3-3--|
|-------------------------------------------------------------------------|
|-------------------------------------------------------------------------|
|-2-2-2-2-x--2-x-2-2-2-x--2-2-2-2-x--2-x-2-2-2-2-x--2-x-2-2-2-x--2-2-2-2--|

drum fill

|------------------------------------------------------------------------|
|------------------------------------------------------------------------|
|-3-x--3-3-3-3-x-3-x--3-3-3-x--3-3-3-3-x-3-x--3-3-3-3-x-3-x--3-3-3-------|
|------------------------------------------------------------------------|
|------------------------------------------------------------------------|
|-2-x--2-2-2-2-x-2-x--2-2-2-x--2-2-2-2-x-2-x--2-2-2-2-x-2-x--2-2-2-------|


|-----------------------------------------------------------------|
|-----------------------------------------------------------------|
|-3-3-3-3--x-3----------------------------------------------------|
|-----------------------------------------------------------------|
|-----------------------------------------------------------------|
|-2-2-2-2--x-2----------------------------------------------------|

counting for breakdown goes as follows:

1234
1
123
1234
1
1234
1
123
1234

1
1234
1
123
1234
1
1234
1
123
1234
1
Comments