Dredg - Ode To The Sun Chords & Tabs

 

Ode To The Sun Chords & Tabs

Dredg Chords & Tabs

Version: 1 Type: Tab

Ode To The Sun Tab

   
This was tabbed along with the help of my instructor, Eric

Email for any ques/comm/suggestions nanundaniel@aim.com


Tuning : drop D


intro (clean) :
e-------------------------5-5-444--------|
B-6-6-6-6-6-6--4-4-4-4-4-----------------|
G--5-5-5-5-5-5--6-6-6-6-6----------------|
D----------------------------------------|
A----------------------------------------|
D----------------------------------------|

e-------------------------6-6-6-6--------|
B-6-6-6-6-6-6--4-4-4-4-4--4-4-4-4--------|
G--5-5-5-5-5-5--6-6-6-6-6----------------|
D----------------------------------------|
A----------------------------------------|
D----------------------------------------|

distortion:

e-13-///-11-///-6-///--------------------|
B--9-///--8-///-6-///--------------------|
G-10-///--8-///-3-///--------------------|
D---------------3-///--------------------|
A----------------------------------------|
D----------------------------------------|
repeat

Verse:
[ Tab from: http://www.guitartabs.cc/tabs/d/dredg/ode_to_the_sun_tab.html ]
e-------------------------------|
B-9--///-11-///-----------------|
G-10-///-8-///--3-///-----------|
D---------------3-///-----------|
A-------------------------------|
D-------------------------------|

pre-chorus

e-8-8-8-8-8-8-8-8/11-11-11-11-11-|
B-x-x-x-x-x-x-x-x/x-x-x-x-x-x-x--|
G-5-5-5-5-5-5-5-5/10101010101010-|
D-x-x-x-x-x-x-x-x/x-x-x-x-x-x-x--|
A-8-8-8-8-8-8-8-8/8-8-8-8-8-8-8--|
D--------------------------------|
repeat

chorus:

e--------------------------------------------------|
B-6-6-6-6-6-6-6-6--4-4-4-4-4-4-4-4/4-4-4-4-4-4-4-4-|
G-5-5-5-5-5-5-5-5--3-3-3-3-3-3-3-3/6-6-6-6-6-6-6-6-|
D-3-3-3-3-3-3-3-3--1-1-1-1-1-1-1-1/6-6-6-6-6-6-6-6-|
A-3-3-3-3-3-3-3-3--1-1-1-1-1-1-1-1/4-4-4-4-4-4-4-4-|
D-3-3-3-3-3-3-3-3--1-1-1-1-1-1-1-1/4-4-4-4-4-4-4-4-|
repeat

middle part thing:
(not sure how to play this)

e-
B-9--15
G-10-12
D
A
D

order
1.intro
2.distortion
3.verse
4.pre-chorus
5.chorus
6.verse
7.pre-chorus
8.chorus
9.Middle part
10.intro (repeat)palm mute
11.
chorus