Dream Theater - Wait For Sleep Chords & Tabs

 

Wait For Sleep Chords & Tabs

Dream Theater Chords & Tabs

Version: 1 Type: Tab 0 ratings
1 star 2 stars 3 stars 4 stars 5 stars
comments

Wait For Sleep Tab

Wait For Sleep


Author - Walter Marano


		*Wait For Sleep*
	   *from "Image & Words" album*		

Transcribed by Walter Marano - hollanda@zaitek.com.br
			       killing_time@rocketmail.com

Notation:

p = pull off
h = hammer on
* = tapped harmonics

Guitar 1  (Keyboard arranged for guitar; finger style)

   
E||-------------------------|-------------------------|
B||--12---------10----12p0--|--12---------10----12p0--|
G||-------------------------|-------------------------|
D||--------9----------------|--------9----------------|
A||-------------------------|-------------------------|
e||-------------------------|-------------------------|

E||-------------------------|----10p0-----8p5----|
B||--12---------10----12p0--|--------------------|
G||-------------------------|--------------------|
D||--------9----------------|--------------------|
A||-------------------------|--------------------|
e||-------------------------|--------------------|
  	
E||--7----------5----7p0-------|--7----------5----7p0-------|
B||----------------------------|----------------------------|
G||-------5-----------------5--|--------5----------------5--|
D||----------------------------|----------------------------|
A||----------------------------|----------------------------|
e||----------------------------|----------------------------|

E||--3---------2p3-------2p0-------------|
B||------------------0----|---------3p0--|
G||-------2---------------|----2---------|
D||-----------------------|--------------|
A||-----------------------|--------------|
e||-----------------------|--------------|

      o		     o		o	  o    o	
      o    o    o    o   o      o    o    o    o   o
E||-------------------------|-------------------------|
B||--12-------------12------|--12-------------12------|
G||-------------------------|-------------------------|
D||-------12----7-----------|-------12----7-----------|
A||------------------7------|------------------7------|
e||--12---------7--------7--|--12---------7--------7--|

      o	        o    o 	       o	
      o    o    o    o   o     o     o     o     o
E||-------------------------|--------------8----------|  
B||--12-------------12------|-------------------------|
G||-------------------------|--7----------------------|
D||-------12----7-----------|--------------------7----|
A||------------------7------|--------7-----7----------|
e||--12---------7--------7--|--7----------------------|

E||--7-------------7p0--------|--7-------------7p0--------|
B||-----------10--------------|-----------10--------------|
G||-------0-------------------|-------0-------------------|
D||------10---------------10--|------10---------------10--|
A||---------------------------|---------------------------|
e||--8------------------------|--8------------------------|

E||--3-------2----3---------2--|---0--------------||
B||---------------0------------|-------------3p0--||
G||----------2--------------2--|--------0---------||
D||------2-------------2-------|---4---------4h2--||
A||--0-------------------------|--(0)-------------||
e||----------------------------|------------------||

Verse 1:

E||--7---------------7---------|--7---------------7-------|
B||------------10--------------|------------10------------|
G||----------------------------|--------------------------|
D||-------9-----------------9--|-------9---------------9--|
A||------------------7---------|------------------7-------|
e||--0-------------------------|--0-----------------------|
			  Stand      -     ing   by   the

E||--7---------------7-------|--10-----------8----------|
B||------------10------------|---------------------10---|
G||--------------------------|---------9----------------|
D||-------9---------------9--|--------------------------|
A||------------------7-------|--------------------------|
e||--0-----------------------|---0----------------------|
    win   -   dow,

E||--7---------------7p0------|--7---------------7p0------|
B||------------10-------------|------------10-------------|
G||---------------------------|---------------------------|
D||------10---------------10--|------10---------------10--|
A||---------------------------|---------------------------|
e||--8------------------------|--8------------------------|
     				 eyes      up - on    the   

E||--3--------------3----------|---0--------------------|
B||-----------7----(7)p0----7--|--------------------0---|
G||----------------------------|--------------7---------|
D||-------7--------------------|--------9---------------|
A||--0-------------------------|------------------------|
e||----------------------------|---7--------------------|
     moon.

E||--7---------------7---------|--7---------------7-------|
B||------------10--------------|------------10------------|
G||----------------------------|--------------------------|
D||-------9-----------------9--|-------9---------------9--|
A||------------------7---------|------------------7-------|
e||--0-------------------------|--0-----------------------|
			          Hop  -   ing  that  the

E||--7---------------7-------|--10-----------8----------|
B||------------10------------|---------------------10---|
G||--------------------------|---------9----------------|
D||-------9---------------9--|--------------------------|
A||------------------7-------|--------------------------|
e||--0-----------------------|---0----------------------|
    mem - o -  ry

E||--7---------------7p0------|--7---------------7p0------|
B||------------10-------------|------------10-------------|
G||---------------------------|---------------------------|
D||------10---------------10--|------10---------------10--|
A||---------------------------|---------------------------|
e||--8------------------------|--8------------------------|
     		          will  leave     her  spirit	

E||--3--------------3----------|---0--------------------0---||	
B||-----------7----(7)p0----7--|-----------3-------5--------||  
G||----------------------------|-------7-------7------------||
D||-------7--------------------|----------------------------||  
A||--0-------------------------|----------------------------||
e||----------------------------|---7------------------------||
     soon.					       She

Bridge 1:

E||--0----------0----------|-------------------------|
B||--8----------8----------|--7-----------7----------|
G||--5----------5----------|--7-----------7----------|
D||--7----------7----------|--7-----------7----------|
A||--0---------------------|-------------------------|
e||------------------------|--7----------------------|
   shuts    the doors   and lights     and lays   her

E||--0----------0----------|--0-----------0------------|
B||--3----------3----------|--3-----------3------------|
G||--4----------4----------|--4-----------4------------|
D||--5----------5----------|--5-----------5------------|
A||------------------------|--3------------------------|
e||--0---------------------|---------------------------|
    bod  -  y  on  the bed,			  her

E||--0------------0-----------|--5------------5------------|
B||--8------------8-----------|--7------------7------------|
G||--5------------9-----------|--7-------------------------|
D||--7------------7-----------|--9------------9------------|
A||--0------------------------|----------------------------|
e||---------------------------|--7-------------------------|
    im - a - ges and     words		 are running deep.  

E||--7------------7---------|--7----------7----------|
B||--8------------8---------|--8----------8----------|
G||--7------------7---------|--9----------9----------|
D||-------------------------|------------10----------|
A||--7----------------------|-10---------------------|
e||-------------------------|--8---------------------|

E||--8----------7----------|------------------------|
B||--0----------0----------|-10----------8----------|
G||--9----------9----------|--7----------7----------|
D||-10---------10----------|--9----------9----------|
A||--0---------------------|------------------------|
e||------------------------|--7---------------------|
   She  has    too  much    pride  to pull      the 

E||--0----------0----------|--0----------0----------|
B||--8----------8----------|--8----------8----------|
G||--7----------7----------|--7----------7----------|
D||--9----------9----------|--9----------9----------|
A||--7---------------------|------------------------|
e||------------------------|--8---------------------|
    sheets  above her head 			 so

E||--0----------0----------|------------------------||
B||--8----------8----------|--7----------7----------||
G||--5----------5----------|--7----------7----------||
D||--7----------7----------|--7----------7----------||
A||--0---------------------|------------------------||
e||------------------------|--7---------------------||
    qui - et - ly	she  lays  and wait     for

      o		o    o		o	  o    o	
      o    o    o    o   o      o    o    o    o   o
E||-------------------------|-------------------------|
B||--12-------------12------|--12-------------12------|
G||-------------------------|-------------------------|
D||-------12----7-----------|-------12----7-----------|
A||------------------7------|------------------7------|
e||--12---------7--------7--|--12---------7--------7--|
    sleep.

      o	        o    o 	       o	
      o    o    o    o   o     o     o     o     o
E||-------------------------|--------------8----------|  
B||--12-------------12------|-------------------------|
G||-------------------------|--7----------------------|
D||-------12----7-----------|--------------------7----|
A||------------------7------|--------7-----7----------|
e||--12---------7--------7--|--7----------------------|

E||--7-------------7p0--------|--7-------------7p0--------|
B||-----------10--------------|-----------10--------------|
G||-------0-------------------|-------0-------------------|
D||------10---------------10--|------10---------------10--|
A||---------------------------|---------------------------|
e||--8------------------------|--8------------------------|

E||--3-------2----3---------2--|---0--------------||
B||---------------0------------|-------------3p0--||
G||----------2--------------2--|--------0---------||
D||------2-------------2-------|---4---------4h2--||
A||--0-------------------------|--(0)-------------||
e||----------------------------|------------------||

Verse 2:

E||--7---------------7-------------|--7-----------------7------------|
B||------------10------------------|--------------10-----------------|
G||-----------------------9--------|-------------------------9-------|
D||-------9--------------------9---|---------9--------------------9--|
A||------------------7-------------|-(7)-----------------------------|
e||--0-----------------------------|---------------------------------|
			    She      stares                 at  the	

E||--7---------------7-------------|-10---------------8--------------|
B||------------10------------------|-------8---------------8---------|
G||-----------------------9--------|-------------9--------------9----|
D||-------9--------------------9---|---------------------------------|
A||------------------7-------------|-(7)-----------------------------|
e||--0-----------------------------|---------------------------------|
    ceil  -  ing   and	   tries            not       to    think.

E||--7-----------------7p0---------|--7------------------7p0---------|
B||-------------10-----------------|--------------10-----------------|
G||--------------------0-----------|-(0)-----------------------------|
D||-------10------------------10---|--------10------------------10---|
A||--------------------------------|---------------------------------|
e||--8-----------------------------|---------------------------------|

								 o	
E||--3----------------3------------|------------0-----------3--------|
B||------------7-----(7)p0----7----|--5---------------7--------------|
G||--------------------------------|-------7-------------------------|
D||-------7------------------------|-----------------------------7---|
A||--0-----------------------------|---------------------------------|
e||--------------------------------|--7------------------------------|

E||--7---------------7-------------|--7-----------------7------------|
B||------------10------------------|--------------10-----------------|
G||-----------------------9--------|-------------------------9-------|
D||-------9--------------------9---|---------9--------------------9--|
A||------------------7-------------|-(7)-----------------------------|
e||--0-----------------------------|---------------------------------|
			     And     pic    -    tures the    chain
[ Tab from: http://www.guitartabs.cc/tabs/d/dream_theater/wait_for_sleep_tab.html ]
E||--7---------------7-------------|-10---------------8--------------|
B||------------10------------------|-------8---------------8---------|
G||-----------------------9--------|-------------9--------------9----|
D||-------9--------------------9---|---------------------------------|
A||------------------7-------------|-(7)-----------------------------|
e||--0-----------------------------|---------------------------------|
               she's been     try      -      ing    to      link 

E||--7-----------------7p0---------|--7------------------7p0---------|
B||-------------10-----------------|--------------10-----------------|
G||--------------------0-----------|-(0)-----------------------------|
D||-------10------------------10---|--------10------------------10---|
A||--------------------------------|---------------------------------|
e||--8-----------------------------|---------------------------------|
     a   -   gain,					 but   the
								 o	
E||--3----------------3------------|--0---------0--------------------||
B||------------7-----(7)p0----7----|-------5----------0----------0---||
G||--------------------------------|------------------------4--------||
D||-------7------------------------|---------------------------------||
A||--0-----------------------------|--0------------------------------||
e||--------------------------------|---------------------------------||
    feel  -  ing      is   gone.				 And

Bridge 2:

E||--0----------0----------|-------------------------|
B||--8----------8----------|--7-----------7----------|
G||--5----------5----------|--7-----------7----------|
D||--7----------7----------|--7-----------7----------|
A||--0---------------------|-------------------------|
e||------------------------|--7----------------------|
     water      can't        cover		 her	

E||--0----------0----------|--0-----------0------------|
B||--3----------3----------|--3-----------3------------|
G||--4----------4----------|--4-----------4------------|
D||--5----------5----------|--5-----------5------------|
A||------------------------|--3------------------------|
e||--0---------------------|---------------------------|
     memory.					   And	

E||--0------------0-----------|--5------------5------------|
B||--8------------8-----------|--7------------7------------|
G||--5------------9-----------|--7-------------------------|
D||--7------------7-----------|--9------------9------------|
A||--0------------------------|----------------------------|
e||---------------------------|--7-------------------------|
     ashes      	 can't  answer		       her 

E||--7------------7---------|--7----------7----------|
B||--8------------8---------|--8----------8----------|
G||--7------------7---------|--9----------9----------|
D||-------------------------|------------10----------|
A||--7----------------------|-10---------------------|
e||-------------------------|--8---------------------|
     pain.

E||--8----------7----------|------------------------|
B||--0----------0----------|-10----------8----------|
G||--9----------9----------|--7----------7----------|
D||-10---------10----------|--9----------9----------|
A||--0---------------------|------------------------|
e||------------------------|--7---------------------|
     God give me	the  power	    to take

E||--0----------0----------|--0----------0----------|
B||--8----------8----------|--8----------8----------|
G||--7----------7----------|--7----------7----------|
D||--9----------9----------|--9----------9----------|
A||--7---------------------|------------------------|
e||------------------------|--8---------------------|
     breath     from    a     breeze,		And

E||--0----------0----------|------------------------||
B||--8----------8----------|--7----------7----------||
G||--5----------5----------|--7----------7----------||
D||--7----------7----------|--7----------7----------||
A||--0---------------------|------------------------||
e||------------------------|--7---------------------||
     call life from    from   a metal          fra -

E||--0--------------0---------0--|--0--------------0---------0--|
B||------------3-----------------|------------3-----------------|
G||-------4--------------4-------|-------4--------------4-------|
D||------------------------------|-(2)--------------------------|
A||---------------------------2--|------------------------------|
e||--0--------------2------------|------------------------------|
   - me.

E||--0--------------0---------0--|--0--------------0---------0--||
B||------------3-----------------|------------3-----------------||
G||-------4--------------4-------|-------4--------------4-------||
D||---------------------------2--|-(2)--------------------------||
A||------------------------------|------------------------------||
e||--0--------------2------------|------------------------------||

Chorus:

E||--0----------------|--5-------------------|--0-------------0-----|
B||-------------------|--7------8------7-----|--8-------------8-----|
G||--2----------------|--7------7------7-----|--7-------------9-----|
D||--0-------------0--|-(0)------------------|----------------------|
A||-------------------|----------------------|----------------------|
e||-------------------|----------------------|--8-------------------|
                         In     with   the      ash  -  es,
 
          o    o    o
E||-(0)------------12-----|--7-----------10------|(10)-----------------|
B||-----------12----------|--8-------------------|--------8----(8)p7---|
G||------12---------------|--7-------------------|---------------------|
D||-----------------------|----------------------|---------------------|
A||-----------------------|--0-------------------|-12*-----------------|
e||--8--------------------|----------------------|---------------------|
		       or   up    with the  smoke         from    the

E||--0------------------|--0------------------|--0---------------------|
B||--0-----------0------|--0------------------|--0---------------------|
G||--7------------------|--7-----------0------|--7---------------------|
D||--9------------------|--9------------------|--------------4---------|
A||---------------------|---------------------|------------------------|
e||---------------------|---------------------|--7----------------7----|
     fire.							  With
						
E||--5-------------------|--0------------0-----|---------12h7----------|
B||--7------8------7-----|--8------------8-----|------8---------8------|
G||--7------7------7-----|--7------------5-----|-11-----------------9--|
D||----------------------|---------------7-----|--0--------------------|
A||----------------------|--0------------------|-----------------------|
e||-(7)------------------|---------------------|-----------------------|
   wings    up     in       heav  -  en,                            or 

						  o
  						  o
						  o		 o
E||--0-------------------|---------------------|-----------------------|
B||--7-------------------|--7------8-----10----|-12--------------------|
G||--7-------------------|--7------9-----11----|-12--------------------|
D||--0-------------7-----|--0------------------|-12-------------12-----|
A||----------------------|---------------------|-----------------------|
e||----------------------|---------------------|--8--------------------|
     here,                  ly - ing     in       bed

     o
     o
     o		    o    
E||-----------------------|--7-------------10-----|(10)----------------|
B||-12--------------------|--7--------------------|--------8------7----|
G||-12--------------------|--7--------------------|--------------------|
D||----------------12-----|--0--------------------|--0-----------------|
A||-----------------------|-----------------------|--------------------|
e||-(8)-------------------|-----------------------|--------------------|
     			    palm      of  her  hand        to     my 

E||--0----------|-(0)----------|--5--------------|---------------------|
B||--3----------|-(3)----------|--7--------------|--7------8------10---|
G||--4----------|-(4)----------|-----------------|--7------9------11---|
D||--2----------|-(2)----------|--0--------7p0---|--0--------------0---|
A||--3----------|-(3)----------|--0--------------|---------7-----------|
e||-------------|--------------|-----------------|---------------------|
     head.			  Now        and    for - ev  -   er

      o
      o
      o		       o     o
      o		       o     o	       o
E||-----------------------|-----------------------|
B||--12---------------12--|-12--------------------|
G||--12---------------12--|-12--------------------|
D||--12-------------------|-----------12----------|
A||-----------------------|-----------------------|
e||--12-------------------|(12)-------------------|
     curled			          in   my

E||-----------------------|-----------------------|
B||--7--------------------|-10--------------------|
G||--7--------------------|--7--------------------|
D||--7--------------------|--9--------------------|
A||-----------------------|-----------------------|
e||--7--------------------|-(7)-------------------|
    heart   and  the    heart     of   the  world.

E||--0-----------|--------------|--0-----------|--0-----------||
B||--------------|--7-----------|--8-----------|-10-----------||
G||--0-----------|--7-----------|--------------|--7-----------||
D||--------------|--------------|--------------|--------------||
A||--------------|--------------|--------------|--------------||
e||--8-----------|-(8)----------|-(8)----------|-(8)----------||

      o		o    o		o	  o    o	
      o    o    o    o   o      o    o    o    o   o
E||-------------------------|-------------------------|
B||--12-------------12------|--12-------------12------|
G||-------------------------|-------------------------|
D||-------12----7-----------|-------12----7-----------|
A||------------------7------|------------------7------|
e||--12---------7--------7--|--12---------7--------7--|

      o	        o    o 	       o	
      o    o    o    o   o     o     o     o     o
E||-------------------------|--------------8----------|  
B||--12-------------12------|-------------------------|
G||-------------------------|--7----------------------|
D||-------12----7-----------|--------------------7----|
A||------------------7------|--------7-----7----------|
e||--12---------7--------7--|--7----------------------|

E||--7-------------7p0--------|--7-------------7p0--------|
B||-----------10--------------|-----------10--------------|
G||-------0-------------------|-------0-------------------|
D||------10---------------10--|------10---------------10--|
A||---------------------------|---------------------------|
e||--8------------------------|--8------------------------|

E||--3-------2----3---------2--|---0--------------|
B||---------------0------------|-------------3p0--|
G||----------2--------------2--|--------0---------|
D||------2-------------2-------|---4---------4h2--|
A||--0-------------------------|------------------|
e||----------------------------|------------------|

      o		o    o		o	  o    o	
      o    o    o    o   o      o    o    o    o   o
E||-------------------------|-------------------------|
B||--12-------------12------|--12-------------12------|
G||-------------------------|-------------------------|
D||-------12----7-----------|-------12----7-----------|
A||------------------7------|------------------7------|
e||--12---------7--------7--|--12---------7--------7--|

      o	        o    o 	       o	
      o    o    o    o   o     o     o     o     o
E||-------------------------|--------------8----------|  
B||--12-------------12------|-------------------------|
G||-------------------------|--7----------------------|
D||-------12----7-----------|--------------------7----|
A||------------------7------|--------7-----7----------|
e||--12---------7--------7--|--7----------------------|

E||--7-------------7p0--------|--7-------------7p0--------|
B||-----------10--------------|-----------10--------------|
G||-------0-------------------|-------0-------------------|
D||------10---------------10--|------10---------------10--|
A||---------------------------|---------------------------|
e||--8------------------------|--8------------------------|

							      o
							      o	
E||--3-------2----3-------0---|-------0-----3-----------10--------|
B||---------------0p1---------|--3----------0-----12----------7---|
G||----------2------------2---|-------0-----------------11--------|
D||------2--------------------|--4----------------12----------7---|
A||--0------------------------|-----------------------------------|
e||---------------------------|-----------------------------------|

E||--0------------------------||
B||--3------------------------||
G||--2------------------------||
D||--4------------------------||
A||--2------------------------||
e||--0------------------------||
Comments