Dream Theater - Voices Chords & Tabs

 

Voices Chords & Tabs

Dream Theater Chords & Tabs

Version: 1 Type: Tab 0 ratings
1 star 2 stars 3 stars 4 stars 5 stars
comments

Voices Tab

   
 __       _____
|  \        |               \    /
|   |	    |          ---   \  /
|__/ REAM   | HEATER          \/ OICES

(By: Labrie/Moore/Myung/Petrucci/Portnoy)

Normal Tuning
				    T				      Dist.
E---0)--------------(0)------------A.H----------------------------------------------|
B---4(------------|-(4)----------|--4(16)-----------|-(4)-----------|---------------|
G---4)------------|-(4)----------|--4(16)-----------|-(4)-----------|--2---------2--|
D---2(------------|-(2)----------|------------------|---------------|--2---------2--|
A---0)------------|-(0)----------|------------------|---------------|--0---------0--|
E-----------------------------------------------------------------------------------|

E-----------------------------------------------------------------------------------|
B---------------|----------------|---------------|---------------|------------------|
G--2---------3--|--5----------5--|--7----5----4--|--2---------2--|--2------------3--|
D--1---------1--|--3----------3--|--5----3----3--|--2---------2--|--1------------1--|
A--0---------0--|--0----------0--|--0----0----0--|--0---x-----0--|--0------------0--|
E-----------------------------------------------------------------------------------|
						       pm
				    Band enters
E------------------3----------------------------------------------------------------|
B---------------|--3--------------|--------------|---------------|------------------|
G--5---------5--|--0--------------|--9--------9--|--8---------8--|-10-----------10--|
D--3---------3--|--0-----3--------|--7--------7--|--7---------7--|--7------------7--|
A--0---------0--|--------3--------|--0--------0--|--0---------0--|--0------------0--|
E------------------3-----1-----0----------------------------------------------------|

E-----------------------------------------------------------------------------------|
B----------------|-------------------------------|----------------------------------|
G--7----5-----4--|--9------9-----9------9-----9--|--8------8-------8-------8-----8--|
D--5----3-----3--|--7------7-----7------7-----7--|--7------7-------7-------7-----7--|
A--0----0-----0--|--0--0-0---0-0---0-0----0-0----|----0-0-----0-0-----0-0----0-0----|
E-----------------------------------------------------------------------------------|
		      pm..| pm..| pm..|  pm..|       pm..|   pm..|   pm..|  pm..|
			
E-----------------------------------------------------------------------------------|
B------------------------------|----------------------------------|-----------------|
G-10-----10----10----10----10--|--7------7------5------5-------4--|-----------------|
D--7------7-----7-----7-----7--|--5------5------3------3-------3--|-----------------|
A-----0-0---0-0---0-0---0-0----|-----0-0----0-0----0-0----0-0-----|--0-7-0-7-6-3-0-5|
E-----------------------------------------------------------------------------------|
     pm..| pm..| pm..| pm..|        pm..|  pm..|  pm..|  pm..|			pm..|
 
E-----------------------------------------------------------------------------------|
B---------|--------------------------|--------------------------|-------------------|
G---------|--------------------------|--------------------------|-------------------|
D---------|--------------------------|--------------------------|-------------------|
A-3b(3)--|--0-7-0-7-6-3-0-5-3b(3)--|--0-7-0-7-6-3-0-5-3b(3)--|--0-3-4-5-6-5-3-5-3|
E-----------------------------------------------------------------------------------|
		pm..|			   pm..|				
 
E-----------------------------------------------------------------------------------|
B--------------------------|---------------------------|----------------------------|
G--------------------------|---------------------------|----------------------------|
D----9---9--8--5----5/7\5--|----9---9--8--5-----5/7\5--|----9---9--8--5-----5/7\5---|
A----9---9--8--5----5/7\5--|----9---9--8--5-----5/7\5--|----9---9--8--5-----5/7\5---|
E--0-7-0-7--6--3--0-----------0-7-0-7--6--3--0------------0-7-0-7--6--3--0----------|
  pm...............|	     pm...............|		   pm...............| 

E-----------------------------------------------------------------------------------|
B---------------------|--------------------------|--------------------------|-------|
G---------------------|--------------------------|--------------------------|-------|
D---------------------|--------------------------|--------------------------|-------|
A---------------------|--0-7-0-7-6-3-0-5-3b(3)--|--0-7-0-7-6-3-0-5-3b(3)--|--0-7-0|
E--0-7-6-7-6-3-2-1-0----------------------------------------------------------------|
  pm................|       pm..|     		       pm..|			  pm

						 Keyboard arranged for guitar
E---------------------------------------------------------0------------------0------|
B-------------------|-------------------------|-----10-----------|-----10-----------|
G-------------------|-------------------------|--12----12--------|--11----11--------|
D-------------------|---A.H...|---------------|------------------|------------------|
A-7-6-3-0-5-3b(3)--|--0-3-4-5-6-5-3-5-3b(4)--|------------------|------------------|
E-----------------------------------------------------------------------------------|
  pm									

E-----------0------------------0------------------0------------------0--------------|
B-----10-----------|-----12-----------|-----10-----------|-----10-----------|----10-|
G--10----10--------|--12----12--------|--12----12--------|--11----11--------|-10----|
D------------------|------------------|------------------|------------------|-------|
A------------------|------------------|------------------|------------------|-------|
E-----------------------------------------------------------------------------------|

					 w/Fill 1
E-----0------------------0-------0-----------------0-----0--------------0-----------|
B------------|-----10------------------|-----10-------------|-----10-----------|----|
G--10--------|--12----12-----------12--|--12----12----------|--11----11--------|--10|
D------------|----------------12-------|--------------------|------------------|----|
A------------|-------------------------|--------------------|------------------|----|
E-----------------------------------------------------------------------------------|

E--------0-----0-------------0-----0------------------0--------------------0--------|
B--10-------------|----12------------(0)--|-----10-----------|------10--------------|
G-----10----------|-12----12--------------|--12----12--------|--11------11----------|
D-----------------|-------------12--------|------------------|----------------------|
A-----------------|-----------------------|------------------|----------------------|
E-----------------------------------------------------------------------------------|

					      Guitar
E-----------0------------------0----------------12------5~~~---(5)------------------|
B-----10-----------|-----12------------14p15-|---------------|---------5----|--6~~~-|
G--10----10--------|--12----12------14-------|---------------|--------------|-------|
D------------------|-------------------------|---------------|--------------|-------|
A------------------|-------------------------|---------------|--------------|-------|
E-----------------------------------------------------------------------------------|
					       <<<<   <<<       >>> <<< >>   <<< >> 

E-----------------------------------------------------------------------------------|
B--(6)-------------|-------------------|--------------|------------|----------------|
G--------------4---|-(4)b(6)~~~~~~-----|-----2--------|------------|--4b(5)r4b(5)r4-|
D------------------|-------------------|--------------|--3~~~~-----|----------------|
A------------------|-------------------|--------------|------------|----------------|
E-----------------------------------------------------------------------------------|
           <<<<   			  <<<< >>      <<<<<        <<<<<       >>>

E-----------------------------------------------------------------------------------|
B-------------|-----------------|---------------|------------------|----------------|
G--2~~~~~~----|--(2)------------|---------------|------------------|----------------|
D-------------|---------2-------|--3~~~~~~~~----|--(3)-------------|----------------|
A-------------|-----------------|---------------|----------------2b|(3)b(5)~~~~~~---|
E-----------------------------------------------------------------------------------|
  <<<<          >>>   <<<    >>   <<<                     ><<<<<<<

								  A9
E---------------------------------------------------------------|------------0------|
B-----------------|---------------|-----------------------------|--------0-----0----|
G-----------------|---------------|-----------------------------|*-----6---------6--|
D-----------------|---------------|-----------------------------|*---5--------------|
A--(2)------0-----|---------------|--2b(3)r2b(3)r2b(3)r2b(3)r2--|--0-------0--------|
E---------------------1-----------------------------------------|-------------------|
  <<<<    <<<< >>   <<<<       >>>  <<<<					

  A69                 A(b139)             Asus2		  x2
E------------0-------------------0-----------------0---------|--0-----------(0)-----|
B--------0-----0----|--------0-----0----|--------0---0-------|--0---------|-(0)-----|
G------6---------6--|------6---------6--|------4-------4----*|--2---------|-(2)-----|
D----4--------------|----3--------------|----2-----------2--*|--2---------|-(2)-----|
A--0-------0--------|--0-------0--------|--0-----------------|--0---------|-(0)-----|
E------------------------------------------------------------|----------------------|

			     w/Fill 1   
E--(0)----------(0)-----------(0)----------(0)-----------(0)----------(0)-----------|
B--(0)-------|--(0)--------|--(0)-------|--(0)--------|--(0)--------|-(0)-----------|
G--(2)-------|--(2)--------|--(2)-------|--(2)--------|--(2)--------|-(2)-----------|
D--(2)-------|--(2)--------|--(2)-------|--(2)--------|--(2)--------|-(2)-----------|
A--(0)-------|--(0)--------|--(0)-------|--(0)--------|--(0)--------|-(0)-----------|
E-----------------------------------------------------------------------------------|

   Chorus
E----------------------------------------------------0---------------0--------------|
B----------------|---0------------|--------------|--------0-------|--0-----|--------|
G----------------|--------2-------|--------------|------------2---|--9-----|----2---|
D----------------|------------3---|--------------|----------------|--7-----|-4-----4|
A--3-------------|--(3)-----------|--(3)---------|--(3)-----------|--0-----|--------|
E--1----------------(1)--------------(1)------------(1)-----------------------------|

E-----------------------------------------------------------3-----------------------|
B-----------|--------------|---------3(--|--(3)----------|--3-----------3--3--|--2--|
G-----2-----|--4/6---4-----|---------2)--|--(2)----------|--0-----------0--0--|--2--|
D--3-----3--|--------4--2--|--3----------|---0(----------|--0-----------0--0--|--2--|
A-----------|--2/4---2--0--|--3----------|---0)----------|--------------------|--0--|
E-----------------------------1-----------------------------3-----------3-----------|

             *(on 3rd chorus play here Fill 2)
E-----------------------------------------------------------------------------------|
B----------|------------|------------|----------------|--------------------|--------|
G--2-------|--*--2------|-----2------|--4/6---4---2---|-----------------0--|--(0)---|
D-------2--|--4-----4---|--3-----3---|--------4---2---|--3-----------3-----|--------|
A----------|------------|------------|--2/4---2---0---|--3--------3--------|--------|
E--------------------------------------------------------1-----1--------------------|

						   end Chorus
E----------------3------------------------------------------------------------------|
B-------------|--3--------------------|-----------------------|---------------------|
G-------------|--0--------------0--2--|--(2)------------------|---------------------|
D--3----------|--0-----------0--------|-----------------------|----9---9--8--5-----5|
A------3------|-----------------------|-------------2--3--2---|----9---9--8--5-----5|
E----------------3--------3----------------------3---------------0-7-0-7--6--3--0---|
								pm...............|

E-----------------------------------------------------------------------------------|
B------|---------------------------|---------------------------|--------------------|
G------|---------------------------|---------------------------|--------------------|
D/7\5--|----9---9--8--5-----5/7\5--|----9---9--8--5-----5/7\5--|--------------------|
A/7\5--|----9---9--8--5-----5/7\5--|----9---9--8--5-----5/7\5--|--------------------|
E---------0-7-0-7--6--3--0------------0-7-0-7--6--3--0------------0-7-0-7-6-3-2-1-0-|
          pm..............|          pm...............|          pm................|

E-----------------------------------------------------------------------------------|
B---------------------------------|-----------------------------------|-------------|
G---------------------------------|-----------------------------------|-------------|
D---------------------------------|-----------------------------------|-------------|
A-3-3-0-0-3-3-0-0-0-0-5-0-0-7-0-0-|--3-3-0-0-3-3-0-0-0-0-5-0-0-7-0-0--|--3-3-0-0-3-3|
E-----------------------------------------------------------------------------------|
  pm................................................................................

E-----------------------------------------------------------------------------------|
B----------------------|-------------------------------------------|----------------|
G----------------------|-------------------------------------------|----------------|
D----------------------|-------------------------------------------|----------------|
A-0-0-0-0-5-0-0-7-0-0--|--3-3-0-0-3-3-0-0-------3-5-7-7-5-3--------|----------------|
E-----------------------------------------3-5-7-------------7-5-3-----5-5-2-2-5-5-2-|
 .................................................................|  pm.............

E-----------------------------------------------------------------------------------|
B---------------------|-------------------------------------|-----------------------|
G---------------------|-------------------------------------|-----------------------|
D---------------------|-------------------------------------|-----------------------|
A--------2-----4------|------------------------2-----4------|----------------------2|
E--2-2-2---2-2---2-2-----5-5-2-2-5-5-2-2-2-2-2---2-2---2-2-----5-5-2-2-5-5-2-2-2-2--|
  pm................................................................................

E-----------------------------------------------------------------------------------|
B------------|-------------------------------------------|--------------------------|
G------------|-------------------------------------------|--------------------------|
D------------|-------------------------------------------|--------------------------|
A-----4------|------------------------4-----------4-5-7--|--3-3-0-0-3-3-0-0-0-0-5-0-|
E-2-2---2-2-----5-5-2-2-5-5-2-2-4-5-7---7-5-4-5-7-----------------------------------|
 ......................................................|   pm.......................	

E-----------------------------------------------------------------------------------|
B----------|-----------------------------------|------------------------------------|
G----------|-----------------------------------|------------------------------------|
D----------|-----------------------------------|------------------------------------|
A-0-7-0-0--|--3-3-0-0-3-3-0-0-0-0-5-0-0-7-0-0--|--3-3-0-0-3-3-0-0-0-0-5-0-0-7-0-0---|
E-----------------------------------------------------------------------------------|
 ...................................................................................

E-----------------------------------------------------------------------------------|
B-------------------------------------------|-----------------------------------|---|
G-------------------------------------------|-----------------------------------|---|
D-------------------------------------------|-----------------------------------|---|
A--3-3-0-0-3-3-0-0-------5-7-8-8-7-5--------|-----------------------------------|---|
E------------------5-7-8-------------8-7-5-----3-3-0-0-3-3-0-0-0-0-5-0-0-7-0-0-----3|
 ..........................................|  pm....................................

E-----------------------------------------------------------------------------------|
B--------------------------------|-----------------------------------|--------------|
G--------------------------------|-----------------------------------|--------------|
D--------------------------------|-----------------------------------|--------------|
A--------------------------------|-----------------------------------|--------------|
E-3-0-0-3-3-0-0-0-0-5-0-0-7-0-0-----3-3-0-0-3-3-0-0-0-0-5-0-0-7-0-0-----3-3-0-0-3-3-|
 ................................................................................... 

E--------------------------------------------------------(0)-----0--------0-----0---|
B-----------------------|--------------|--------0-----|--(0)-----0-----|--0-----0---|
G-----------------------|--Chorus-(2)--|--------9-----|--(9)-----9-----|--9-----10--|
D-----------------------|--------------|--7-----------|---7------------|--7---------|
A-----------------------|--------------|--0-----------|---0------------|--0---------|
E--0-0-7-6-5-4-5-4-3-2--------------------------------------------------------------|
 .....................|
									    Riff 1 (
E-(0)------0-------0-----0--------(0)-----0-------------------------------|---------|
B-(0)------0----|--0-----0-----|--(0)-----0-----|----------|--------------|---------|
G-(10)----10----|--9-----9-----|--(9)-----9-----|--5-------|--4---5---4---|---------|
D--7------------|--7-----------|---7------------|--3-------|--3---3---3---|---------|
A--0------------|--0-----------|---0------------|----------|--------------|---------|
E-------------------------------------------------------------------------|--3h5-5-5|
[ Tab from: http://www.guitartabs.cc/tabs/d/dream_theater/voices_tab.html ]
 Gtr.1)								 end Riff 1
E---------------------------------------------------------------------------|-------|
B---------------------------------|-----------------------------------------|-------|
G---------------------------------|-----------------------------------------|-Riff-1|
D---------------------------------|-----------------------------------------|-------|
A---------------------------------|---------------------------------3-------|-------|
E-5-5-3h5-5-5-5-5-3h5-5-5-3h5-5-5---3h5-5-5-5-5-3h5-5-5-5-5-3h5-5-5---5-5-5-|-------|

  Gtr.2 with Riff 1 (2 times)
E-----------------------------------------------------------------------------------|
B-------------------------------------------|---------------------------------------|
G*------------------------------------------|----------------------------------5----|
D*-5h7-7-7-7-7-5h7-7-7-7-7-5h7-7-7-5h7-7-7--|--5h7-7-7-7-7-5h7-7-7-7-7-5h7-7-7---7-7|
A-------------------------------------------|---------------------------------------|
E-----------------------------------------------------------------------------------|

   x2	
E--------0-----0-----0--------------0-----0------0--------0-----0-----0-------------|
B-----|--0-----0--------0--------|--0-----0------0-----|--0-----0--------0----------|
G----*|--9-----9-----------9-----|--6-----6------6-----|--6-----6-----------6-------|
D-7--*|--7-----7--------------7--|--5-----5------------|--4-----4--------------4----|
A-----|--0-----0-----------------|--0-----0------------|--0-----0-------------------|
E-----------------------------------------------------------------------------------|

E--0-----0-----0)------0-----0----0---0------0------0------0------0------0-----0-0--|
B--0-----0-----0(---|--0-----0------0-----|--0------0------0---|--0------0-------0-0|
G--5-----4-----5)---|--4-----4------------|--6------6------6---|--6------6-------6--|
D--3-----3-----3(---|--2-----2------------|--5------5------5---|--4------4-------4--|
A--0-----0-----0)---|--0-----0------------|--0------0------0---|--0--------------0--|
E-----------------------------------------------------------------------------------|

E----------------------0-----0-----0-------0---0---------0------0-------------------|
B---|---------------|--0-----0-----0----0---------0---|--0------0---------0---------|
G---|--5----4----5--|--4-----4-----4------------------|--6------6-------------------|
D---|--3----3----3--|--2-----2-----2------------------|--5------5------5------5-----|
A---|---------------|--0-----------0------------------|--0------0-------------------|
E-----------------------------------------------------------------------------------|
	
					  Riff 2		
E--0------0------0------------------------------------------------------------------|
B--2------0-------------|---------------|--------------------|----------------------|
G--6------6---------6---|--5----4----5--|--9--9-----9--9-----|--10--10----10--10----|
D--4------4-------------|--3----3----3--|--7--7-----7--7-----|---7---7-----7---7----|
A--0------0-------------|---------------|--------0--------0--|----------0---------0-|
E-----------------------------------------------------------------------------------|

E-----------------------------------------------------------------------------------|
B------------------------|------------------------|----------------------|----------|
G--12--12-----12--12-----|--14--14-----14--14-----|--16--16-----16--16---|--16--16--|
D--10--10-----10--10-----|--12--12-----12--12-----|--13--13-----13--13---|--14--14--|
A----------0----------0--|----------0----------0--|----------0---------0-|----------|
E-----------------------------------------------------------------------------------|

						      end Riff 2
E-----------------------------------------------------------------------------------|
B--------------|------------------------|------------------------|------------------|
G----16--16----|--17--17-----17--17-----|--19--19-----19--19-----|--9---------------|
D----14--14----|--15--15-----15--15-----|--17--17-----17--17-----|--7---------------|
A-0----------0-|----------0----------0--|----------0----------0--|------------------|
E-----------------------------------------------------------------------------------|

E-----------------------------------------------------------------------------------|
B---------------|------------------|-----------------|--------------------|---------|
G--6------------|------------------|--5----4-----5---|--9-----------------|---6~~~~-|
D--5------------|-------2/4~~~~~~--|--3----3-----3---|--7-----------------|---5~~~~-|
A---------------|------------------|-----------------|--0--------------0--|--(0)~~~-|
E------------------2----------------------------------------------------------------|

E------------------------------------------------------------------3----3----3----3-|
B--------|------------------|-----------------|----Riff-2-------|--1----0----3----3-|
G--------|------------------|--5-----4-----5--|-(-only-the-7-)--|--0----0----2----0-|
D--------|-------2/4~~~~~~--|--3-----3-----3--|--(first-bars)---|--0----0----0----0-|
A--------|------------------|-----------------|-----------------|-------------------|
E-----------2~~----------------------------------------------------3----3----3----3-|

								Guitar Solo
E--------------------------------------------|-------0------------------------------|
B------------|--------------|-------0--------|----------0-----|--10b(12)b(13)--r(10)|
G--2---------|--(2)---------|----------2-----|-------------2--|---------------------|
D--2---------|--(2)---------|-------------3--|----------------|---------------------|
A--0---------|--(0)---------|--3-------------|--3-------------|---------------------|
E------------------------------1----------------1-----------------------------------|

E----------------------------------5-------------5----------------------------------|
Bp8---------------------------|--5---5-8b(10)~~----8p5-8-7b(8)--r7p5---5------------|
G---9~~---(9)\7b(8)b(10)~~~~--|--------------------------------------7---5~~--------|
D-----------------------------|-------------------------------------------------(7)-|
A-----------------------------|-------------------------------------------------(0)-|
E-----------------------------------------------------------------------------------|

E-----------------------------------------------------------------------------------|
B---------------|----------------------------------------|--------------------------|
G-7p6p5b(7)-r5--|------------7b(9)---b(11)--(11)-r7-5~~--|-------------slight-------|
D---------------|--4~~~~---x-----------------------------|--7p5---------A.H.........|
A---------------|----------x-----------------------------|------6\5-3-5--5b(6)--5--3|
E-----------------------------------------------------------------------------------|

E-----------------------------------------------------------------------------------|
B------------------------------------------13--|-------------13b(15)----13b(15)---13|
G------------------------------------12-14-----|--14~~~~---12-----------------------|
D.....................|--12-10-12/14-----------|------------------------------------|
A-5--3b(5)--r(3)-(3)/--------------------------|------------------------------------|
E-----------------------------------------------------------------------------------|

E------------------------------------------15---------------------------------------|
Bb(15)-b(16)--13b(15)b(16)--15b(16)b(17)------15---(17)--------------12-13-14-15-16|
G---------------------------------------------------------11-12-13-14---------------|
D-----------------------------------------------------------------------------------|
A-----------------------------------------------------------------------------------|
E-----------------------------------------------------------------------------------|

E-12-13-14-15b(17)~~----(15)-r15b(17)-----------------------------------------------|
B---------------------|-----------------15-13b(14)-------------------------10-------|
G---------------------|-----------------------------14------------12b(14)----12b(14)|
D---------------------|--------------------------------14\12p10h12------------------|
A---------------------|-------------------------------------------------------------|
E-----------------------------------------------------------------------------------|

E-----------------------------------------------------------------------------------|
B-----------------------------------------------------------------------------------|
G--------------------------------------------------------------------------17-------|
D--------------------------------------------17----------17-19-18-17-19-19----19-19-|
A--------------15----------------15-17-16-19----19-17-19----------------------------|
E--/15--16--17----17-16-15-16-17----------------------------------------------------|

E-------------------------------------hold-bend-------------------------------------|
B-------------17--|--19b(20)~~~~---19--19b(21)--19--19--19--19-r18b(19)~~--|--(18)\-|
G-17-18-17-19-----|--------------------------------------------------------|--------|
D-----------------|--------------------------------------------------------|--------|
A-----------------|--------------------------------------------------------|--------|
E-----------------------------------------------------------------------------------|

E--------------------------------------------------7b(8)--(8)-r7p5---5--------------|
B--15b(17)-b(19)--r(15)-13----------13b(15)---|--5-----------------8---5-8---5------|
G--------------------------14-12-14-----------|----------------------------8---5--7-|
D---------------------------------------------|-------------------------------------|
A---------------------------------------------|-------------------------------------|
E-----------------------------------------------------------------------------------|

E-----------------------------------------------------------------------------5-----|
B-------------------------|----------------------------------5-5-----8-8p5------/10~|
G----5--------------------|------------------5-5-----7-7p5-------8p5-------8--------|
D--7---5--7----5~~--(5)\--|--5-5-----7-7p5-------7p5-------7------------------------|
A-----------7-------------|------7p5-------7----------------------------------------|
E-----------------------------------------------------------------------------------|

E--17p12----12-17p12-17p12----12-17p12----12-17p12-17p12----12-17p12----12-17p12----|
B--------14----------------14----------14----------------14----------14----------14-|
G-----------------------------------------------------------------------------------|
D-----------------------------------------------------------------------------------|
A-----------------------------------------------------------------------------------|
E-----------------------------------------------------------------------------------|

E-17p12h17p12----17p12----12h17p12----17p12----17p12--------12h15p12----12-15p12-15p|
B-------------14-------14----------14-------14-------14--|-----------14-------------|
G--------------------------------------------------------|--------------------------|
D--------------------------------------------------------|--------------------------|
A--------------------------------------------------------|--------------------------|
E-----------------------------------------------------------------------------------|

E12----12-15p12----12-15p12-15p12----12-15p12----12-17p12----12-15p12----12-17p12---|
B---14----------14----------------14----------14----------14----------14----------14|
G-----------------------------------------------------------------------------------|
D-----------------------------------------------------------------------------------|
A-----------------------------------------------------------------------------------|
E-----------------------------------------------------------------------------------|

E-12-15p12-12-17p12-12-----14p12----12-14p12-14p12----12-14p12----12-14p12-14p12----|
B-----------------------|--------13----------------13----------13----------------13-|
G-----------------------|-----------------------------------------------------------|
D-----------------------|-----------------------------------------------------------|
A-----------------------|-----------------------------------------------------------|
E-----------------------------------------------------------------------------------|

E-12-14p12----12-15p12----12-14p12----12-15p12----12-14p12----12-15-12--------------|
B----------13----------13----------13----------13----------13----------12-13-12-|-13|
G-------------------------------------------------------------------------------|---|
D-------------------------------------------------------------------------------|---|
A-------------------------------------------------------------------------------|---|
E-----------------------------------------------------------------------------------|

E-----------------------------------------------------------------------------------|
B15-12-13-13-13-15-12-13-13-15-12-13-13-15-13/14-17-14-13/14-15-15-17-15-17-17-15-17|
G-----------------------------------------------------------------------------------|
D-----------------------------------------------------------------------------------|
A-----------------------------------------------------------------------------------|
E-----------------------------------------------------------------------------------|

			       end Guitar Solo
E----------------------15/17--17---------------|------------------------------------|
B-18-15-15-17-17-18-16-----------22b(25)~~-----|----------------------|-------------|
G----------------------------------------------|*---------------------|-------------|
D----------------------------------------------|*-----------7-----7---|-------------|
A----------------------------------------------|---4--5--7-----0------|------------3|
E----------------------------------------------|-------------------------3--5---5---|

E-----------------------------------------------------------------------------------|
B-----|-----------------------|-------------------|-----------------------|---------|
G-----|-----------------------|-------------------|-----------------------|---------|
D-----|-----------5------5/7--|-------------------|-----------4------5/7--|---------|
A--5--|--4--5--7------0-------|--5---7----7--3h5--|--4--5--7------0-------|---------|
E----------------------------------------------------------------------------3---5--|
								
						   x2
E-----------------------------------------------------|---------------------3-------|
B----------|---------------------|--------------------|----Chorus-(3)----|--3-------|
G----------|---------------------|-------------------*|-(-only-the-17-)--|--0-------|
D----------|-------(5)-----5/7---|-------------------*|--(-first-bars-)--|--0-------|
A-----3h5--|--3h5---7---0--------|--5---7----7---3h5--|------------------|----------|
E--3--------------------------------------------------|---------------------3-------|

E--3--3-----(3)-------3--------1----------------------------------------------------|
B--3--3--|--(3)-------3-----|--1-----------|--------------|-----------------|-------|
G--0--2--|--(2)-------0-----|--3-----------|--3-----------|-----------------|-------|
D--0--0--|--(0)-------0-----|--3-----------|--3-----------|-----------------|-------|
A--------|------------------|--1-----------|--1p0---------|--------------0--|--2---3|
E--3--3-----(3)-------3----------------------------3--1------0---2---4--------------|

							  Acoustic Guitar
E-----------------------------------------------------------------0---------0-------|
B--(3)------|----------------|--------------------------|----9--------9--------|----|
G---2-------|----------------|--------------------------|-------7--------7-----|----|
D---0---3---|--2-------------|--(2)---------------------|----------------------|----|
A---0-------|--2-------------|--(2)---let-ring-til-end--|----------------------|----|
E--------------0----------------(0)------------------------0----------------------0-|

E-------0---------0-------------0---------0-------------0---------0--------------0--|
B--9--------9--------|-----9--------9--------|-----7--------7--------|-----9--------|
G-----6--------6-----|--------5--------5-----|-----------------------|--------7-----|
D--------------------|-----------------------|--------9--------9-----|--------------|
A--------------------|-----------------------|-----------------------|--------------|
E-----------------------0-----------------------0-----------------------0-----------|

E-------0-------------0--------0-------------0--------0--------------0------||
B--9-------|-----9--------9-------|-----9--------9-------|--------7------7--||
G-----7----|--------6--------6----|--------5--------5----|-----7------------||   Segue to 
D----------|----------------------|----------------------|--0---------------|| "Silent Man"
A----------|----------------------|----------------------|------------------||
E-------------0----------------------0--------------------------------------||


  Fill 1 (w/heavy amp tremolo)		  x4
E-------------0--------------(0)---------------|
B-------------0---------|----(0)---------------|
G-------------9---------|*---(9)--------------*|
D-fade in-----7---------|*---(7)--------------*|
A-------------0---------|----(0)---------------|
E----------------------------------------------|
           <<<<<<<<<
  Fill 2
E-----------------------------------------<4>----------------------|
B--7-------------x-----|----(6--------------<4>------|-------------|
G--9b(11)~~~~-----x----|----)8b(10)~~~~-------<4>----|-6---7---9---|
D------------------x---|--x---------------------<4>--|-6---7---9---|
A-------------------0--|-----------------------------|-4---5---7---|
E------------------------------------------------------------------|

TABLAURE EXPLANATION
======================

pm..| = Palm mute

p = Pull off

h = Hammer on

A.H. = Artificial Harmonics

<12> = Natural Harmonic

T = Tap

<<< = Volume swell

>>> =  Volume Decrease

b() = bend

/ = Slide up

\ = Slide down

~~~~ = vibrato

|     |
|     |
|*   *| = repeat from * to *
|*   *| 
|     |
Comments