Dream Theater - Voices Chords & Tabs

 

Voices Chords & Tabs

Dream Theater Chords & Tabs

Version: 1 Type: Bass Tab 0 ratings
1 star 2 stars 3 stars 4 stars 5 stars
comments

Voices Bass Tab

   
 "Voices" en bajo de 6 cuerdas                           
Fernando Castillo Lobos 
Arkanssyaz@hotmail.com
Chile El Infierno del mundo


 
C----16------16--15----------14------|----16------16--15----------14------|
G14------14----------17--14------17--|14------14----------17--14------17--|
D------------------------------------|------------------------------------|
A------------------------------------|------------------------------------|
E------------------------------------|------------------------------------|
B------------------------------------|------------------------------------|

C----16------16--15----------14------|----16------16--15----------14------|
G14------14----------17--14------17--|14------14----------17--14------17--|
D------------------------------------|------------------------------------|
A------------------------------------|------------------------------------|
E------------------------------------|------------------------------------|
B------------------------------------|------------------------------------|

C----16------16--15----------14------|----16------16--15----------14------|
G14------14----------17--14------17--|14------14----------17--14------17--|
D------------------------------------|------------------------------------|
A------------------------------------|------------------------------------|
E------------------------------------|------------------------------------|
B------------------------------------|------------------------------------|

C----16------16--15----------14------|----16------16--15----------14------|
G14------14----------17--14------17--|14------14----------17--14------17--|
D------------------------------------|------------------------------------|
A------------------------------------|------------------------------------|
E------------------------------------|------------------------------------|
B------------------------------------|------------------------------------|

C------------------------------------|------------------------------------|
G----9-------9---8-----------7-------|----9-------9---8-----------7-------|
D7-------7-----------10--7-------10--|7-------7-----------10--7-------10--|
A------------------------------------|------------------------------------|
E------------------------------------|------------------------------------|
B------------------------------------|------------------------------------|
   
C------------------------------------|------------------------------------|
G----9-------9---8-----------7-------|------------------------------------|
D7-------7-----------10--7-------10--|------------------------------------|
A------------------------------------|------------------------------------|
E------------------------------------|3---------------1---------------0---|
B------------------------------------|------------------------------------|
   
C------------------------------------|------------------------------------|
G------------------------------------|------------------------------------|
D----2-------2---1-----------0-------|----2-------2---1-----------0-------|
A0-------0-----------3---0-------3---|0-------0-----------3---0-------3---|
E------------------------------------|------------------------------------|
B------------------------------------|------------------------------------|

C------------------------------------|------------------------------------|
G------------------------------------|------------------------------------|
D----2-------2---1-----------0-------|------------0---1---0-------0-------|
A0-------0-----------3---0-------3---|0---3---4---------------3-------3---|
E------------------------------------|------------------------------------|
B------------------------------------|------------------------------------|

C------------------------------------|------------------------------------|
G------------------------------------|------------------------------------|
D----2-------2---1-----------0-------|----2-------2---1-----------0-------|
A0-------0-----------3---0-------3---|0-------0-----------3---0-------3---|
E------------------------------------|------------------------------------|
B------------------------------------|------------------------------------|
   
C------------------------------------|------------------------------------|
G------------------------------------|------------------------------------|
D----2-------2---1-----------0-------|------------0---1---0-------0-------|
A0-------0-----------3---0-------3---|0---3---4---------------3-------3---|
E------------------------------------|------------------------------------|
B------------------------------------|------------------------------------|
   
C------------------------------------|------------------------------------|
G------------------------------------|------------------------------------|
D----2-------2---1-----------0-------|----2-------2---1-----------0-------|
A0-------0-----------3---0-------3---|0-------0-----------3---0-------3---|
E------------------------------------|------------------------------------|
B------------------------------------|------------------------------------|
 
C------------------------------------|------------------------------------|
G------------------------------------|------------------------------------|
D----2-------2---1-----------0-------|------------0---1---0-------0-------|
A0-------0-----------3---0-------3---|0---3---4---------------3-------3---|
E------------------------------------|------------------------------------|
B------------------------------------|------------------------------------|
   
C------------------------------------|------------------------------------|
G------------------------------------|------------------------------------|
D------------------------------------|------------------------------------|
A----2-------2---1-----------0-------|----2-------2---1-----------0-------|
E0-------0-----------3---0-------3---|0-------0-----------3---0-------3---|
B------------------------------------|------------------------------------|
 
C------------------------------------|------------------------------------|
G------------------------------------|------------------------------------|
D------------------------------------|------------------------------------|
A----2-------2---1-----------0-------|----2-------2---1---0---------------|
E0-------0-----------3---0-------3---|0-------0---------------3---1---0---|
B------------------------------------|------------------------------------|
   
C------------------------------------|------------------------------------|
G------------------------------------|------------------------------------|
D----2-------2---1-----------0-------|----2-------2---1-----------0-------|
A0-------0-----------3---0-------3---|0-------0-----------3---0-------3---|
E------------------------------------|------------------------------------|
B------------------------------------|------------------------------------|
   
C------------------------------------|------------------------------------|
G------------------------------------|------------------------------------|
D----2-------2---1-----------0-------|------------0---1---0-------0-------|
A0-------0-----------3---0-------3---|0---3---4---------------3-------3---|
E------------------------------------|------------------------------------|
B------------------------------------|------------------------------------|
   

C--------|-----------------------------------------------------------------
G-entra--|-----------------------------------------------------------------
D--el----|-----------------------------------------------------------------
A-vocal--|-0~---------0~------0~--------0~-----0~-------0~-----0~----------
E--------|-----0-2-2-----1-3-----0-2-2-----1-3----0-2-2----1-3----0-2-2----
B--------|-----------------------------------------------------------------


C--------------------------------------------------------------------------
G--------------------------------------------------------------------------
D--------------------------------------------------------------------------
A-0~-----0~-------0~-----0~-------0~---------------------------------------
E----1-3----0-2-2----1-3----0-2-2----1-3--5~~~~~----1-1-1-1-1-1-1-1-1-1-1-1
B--------------------------------------------------------------------------
						   

C--------------------------------------------------------------------------
G--------------------------------------------------------------------------
D--------------------------------------------------------------------------
A---------------4-2-0-----5~----------4-2-0--------------------------------
E-1-1-1-1-5~~~---------1~-----3~--5~--------1-1-1-1-1-1-1-3--3-3-3-3-3-3-3-
B--------------------------------------------------------------------------


C--------|------------------------------------------------------------------
G--------|------------------------------------------------------------------
D--------|------------------------------------------------------------------
A-2-3-2--|---2---2-1-----------2---2-1-----------2---2-1-----------2---2-1--
E--------|-0---0-----3-0-5-3-0---0-----3-0-5-3-0---0-----3-0-5-3-0---0-----3
B--------|------------------------------------------------------------------


C-------|------------------------------------------------------------------
G-------|------------------------------------------------------------------
D-------|------------------------------------------------------------------
A-------|-2-2-0-0-2-2-0-0-0-0-5-0-0-7-0-0-2-2-0-0-2-2-0-0-0-0-5-0-0-7-0-0--
E-2-1-0-|------------------------------------------------------------------
B-------|------------------------------------------------------------------


C---------------------------------------------------------------------------
G---------------------------------------------------------------------------
D---------------------------------------------------------------------------
A-2-2-0-0-2-2-0-0-0-0-5-0-0-7-0-0--3-3-0-0-3-3-0-0-0-2-3-4-6-7-5-3-1--------
E--------------------------------------------------------------------4-3-2--
B---------------------------------------------------------------------------


C---------------------------------------------------------------------------
G---------------------------------------------------------------------------
D---------------------------------------------------------------------------
A-0-0-----0-0---------2-----4------0-0-----0-0---------2-----4--------------
E-----2-2-----2-2-2-2---2-2---2-2------2-2-----2-2-2-2---2-2---2-2----------
B---------------------------------------------------------------------------

[ Tab from: http://www.guitartabs.cc/tabs/d/dream_theater/voices_btab.html ]
C---------------------------------------------------------------------------
G---------------------------------------------------------------------------
D-----------------------------------------------------------------------0-2-
A--0-0-----0-0---------2-----4------0-0-----0-0-----0-1-2-4-2-0-0-1-2-4-----
E------2-2-----2-2-2-2---2-2---2-2------2-2-----2-2-------------------------
B---------------------------------------------------------------------------


C--------------------------------------------------------------------------
G--------------------------------------------------------------------------
D--------------------------------------------------------------------------
A--3-3-0-0-3-3-0-0-0-0-5-0-0-7-0-0--3-3-0-0-3-3-0-0-0-0-5-0-0-7-0-0--------
E--------------------------------------------------------------------------
B--------------------------------------------------------------------------


C---------------------------------------------------------------------------
G---------------------------------------------------------------------------
D-----------------------------------------------------------1-2-0-----------
A--3-3-0-0-3-3-0-0-0-0-5-0-0-7-0-0--3-3-0-0-3-3-0-0-0-2-3-4-------3-1-------
E---------------------------------------------------------------------4-3-2-
B---------------------------------------------------------------------------


C--------------------------------------------------------------------------
G--------------------------------------------------------------------------
D--------------------------------------------------------------------------
A-0-0-----0-0---------2-----4-----0-0-----0-0---------2-----4--------------
E-----2-2-----2-2-2-2---2-2---2-2------2-2-----2-2-2-2---2-2---2-2---------
B--------------------------------------------------------------------------


C---------------------------------------------------------------------|
G---------------------------------------------------------------------|
D---------------------------------------------------------------------|
A--0-0-----0-0---------2-----4-------0-0-----0-0-----2-1-0------------|
E------2-2-----2-2-2-2---2-2---2-2-------2-2-----2-2-------4-5-4-3-2--|
B---------------------------------------------------------------------|


C--------------------------------------------------------------------------
G--------------------------------------------------------------------------
D--------------------------------------------------------------------------
A---------------------------------------4-2-0-----5~----------4-2-0--------
E-1-1-1-1-1-1-1-1-1-1-1-1-1-1-1-1--5~~---------1~-----3~--5~---------1-1-1-1
B--------------------------------------------------------------------------

C--------------------------------------------------------------------------
G--------------------------------------------------------------------------
D--------------------------------------------------------------------------
A-------------------------------2-3-2--------------------------------------
E-1-1-1-1-1-1-1-1-3-3-3-3-3-3-3-------5~~--5~~--5~~--3~~~~~--3-5-5-5-5-5-3-
B--------------------------------------------------------------------------

C--------------------------------------------------------------------------
G--------------------------------------------------------------------------
D--------------------------------------------------------------------------
A-----------------------------------------------------------3-0-0-0--------
E-5-5-5-5-5-3-5-5-5-3-5-5-5-3-5-5-5-5-5-3-5-5-5-5-5-3-5-5-5---------3-5-5-5
B--------------------------------------------------------------------------

C--------------------------------------------------------------------------
G--------------------------------------------------------------------------
D--------------------------------------------------------------------------
A-----------------------------------------------------------------3--------
E-5-5-3-5-5-5-5-5-3-5-5-5-3-5-5-5-3-5-5-5-5-5-3-5-5-5-5-5-3-5-5-5---5-5-5--
B--------------------------------------------------------------------------

C--------------------------------------------------------------------------
G--------------------------------------------------------------------------
D--------------------------------------------------------------------------
A-------------------------------------------------------------------------3
E-3-5-5-5-5-5-3-5-5-5-5-5-3-5-5-5-3-5-5-5-3-5-5-5-5-5-3-5-5-5-5-5-3-5-5-5--
B--------------------------------------------------------------------------

C--------------------------------------------------------------------------
G--------------------------------------------------------------------------
D--------------------------------------------------------------------------
A--------------------------------------------------------------------------
E-5-5-5-3-5-5-5-5-5-3-5-5-5-5-5-3-5-5-5-3-5-5-5-3-5-5-5-5-5-3-5-5-5-5-5-3-5
B--------------------------------------------------------------------------

		
C--------------------------------------------------------------------------
G--------------------------------------------------------------------------
D-------------------------------------2~-2-2-2--2~-2-2~--------------------
A-----3-----------------7~--4~--------------------------4~-4-4-4-4--3~-3~-3
E-5-5---5-5-5--5~~~--1~--------2~--1~--------------------------------------
B--------------------------------------------------------------------------


C--------|-------------------------------------------|---------------------
G--------|-------------------------------------------|---------------------
D--------|-------------------------------------------|---------------------
A--------|-0-0-0-0-0-0-0-0-0-0-0-0-0-0-0-0-0-0-0-----|---------------------
E-5~-5~--|-------------------------------------------|-5~--5~-5-5-5--2-2~--
B--------|-------------------------------------------|---------------------

C--------------------------------------------------------------------------
G--------------------------------------------------------------------------
D--------------------------------------------------------------------------
A-------------------0-0~--0-0~-0-0-0---------------------------------------
E-2-2-2-2--2~-2-2-2------------------2--2~-2-2-2--1-1-1-1-1-1-1-1-1-1-1-1--
B--------------------------------------------------------------------------


C----------------|----------------------------------------------------------
G----------------|----------------------------------------------------------
D----------------|----------------------------------------------------------
A-0-0-0--0-0--0--|----------------------------------------------------------
E----------------|-3-3-3-3-3-3-3-3-3-3-3--5~~~--1-1-1-1-1-1-1-1-1-1-1-1-1-1-
B----------------|----------------------------------------------------------


C---------------------------------------------------------------------------
G---------------------------------------------------------------------------
D---------------------------------------------------------------------------
A----------------------------------0--0~------------------------------------
E-1-1-1-1-1-1-1-1-1-1-1-1-1-1-1-1--------0-3-5~-5-5-5-5-5-5-5-5-1~-1-1-1-1--
B---------------------------------------------------------------------------


C---------------------------------------------------------------------------
G---------------------------------------------------------------------------
D---------------------------------------------------------------------------
A------0~-0~-------0-0-0-0-0-0-0-0--------------------------0~-0------0-0-0-
E-1-1~-------0-3-5------------------2~-2-2-2-2-2-2-2-2-1~~-------0-3-5------
B---------------------------------------------------------------------------


C---------------------------------------------------------------------------
G---------------------------------------------------------------------------
D---------------------------------------------------------------------------
A-0-0-0-0-0-------------------------0~--0~-------0-0-0-0-0-0-0-0------------
E-----------2~ 2-2-2-2-2-2-2--1--1~--------0-3-5-----------------2~-2-2-2-2-
B---------------------------------------------------------------------------


C---------------------------------------------------------------------------
G---------------------------------------------------------------------------
D-----------------------7---7-------------------0---7-----------------------
A-----------------4-5-7---0-----------3-5-4-5-7---0----5-7-7---5-4-5-7-9-0--
E-2-2-2--1~--1~~---------------3~-5-5------------------------8--------------
B---------------------------------------------------------------------------


C---------------------------------------------------------------------------
G-2---------------------------------------2---2-----------------2---2-------
D-----------------------7---------------2---------------------2-------------
A---------3-5-3-5-7-8-0---5-7-7-3-5-4-5-----0-----0-0-3-5-4-5-----0---5-7-7-
E---3-5-5---------------------------------------3---------------------------
B---------------------------------------------------------------------------


C---------------------------------------------------|-----------------------
G----------------2----------------------2-----------|-----------------------
D----------2-4--------------------2-3-----0-2-2-----|-----------------------
A-3-5--4-5-----0------0-0-3-5-3-5-----0---------3-5-|-----------------------
E-------------------3-------------------------------|-1-1-1-1-1-1-1-1-1-1-1-
B---------------------------------------------------|-----------------------


C-----------|------------------------------------|--------------------------
G-----------|------------------------------------|--------------------------
D-----------|------------------------------------|--------------------------
A-----------|--------4-2-0----5~-----------4-2-0-|--------------------------
E-1-1-1-1-1-|-5~~~---------1~-----3~--5~~--------|-1-1-1-1-1-1-1-1-1-1-1-1--
B-----------|------------------------------------|--------------------------



C---------------------------------------------------------------------------
G---------------------------------------------------------------------------
D---------------------------------------------------------------------------
A-------------------------------------------1-1-1-1-1-1-1-1-1-0-------------
E-1-1-1-1-3-3-3-3-3-3-3-3-3-3-3-3-3-3-3-3-3---------------------3-1-0-2-4-5-
B---------------------------------------------------------------------------



C---------------------------------------------------------------------------
G---------------------------------------------------------------------------
D---------------------------------------------------------------------------
A-2-3-5---------------------------------------------------------------------
E-------2-------------------------------------------------------------------
B----------5~~~~~~~~~-------------------------------------------------------

AND THE END....
for questions or wathever you want to know or say,
ask to Arkanssyaz@hotmail.com...about this song...
Comments