Dream Theater - Under A Glass Moon Chords & Tabs

 

Dream Theater Chords & Tabs

Version: 1 Type: Tab 0 ratings
1 star 2 stars 3 stars 4 stars 5 stars
comments

Under A Glass Moon Tab

   
Under A Glass Moon - Guitar Tab


Author - Elder Luis Bernardinelli


                               UNDER A GLASS MOON

                                       by

                                 DREAM THEATER



Tabbed by -=> -=> -=> -=>  ELDER LUIS BERNARDINELLI

                            YTSEJAM@BOL.COM.BR


-=-=-=-=-=-=-=-=-=-=-=-=-=-=-=-=-=-=-=-=-=-=-=-=-=-=-=-=-=-=-=-=-=-=-=-=-=-=-=

Hello there!

I'm back (once again!!), this time, with UNDER A GLASS MOON, this is a really
cool song, which took me some hours tab it, but I think that's GREAT!!!

If wanna get some images of the autographies of the band, please mail-me, I'll
send it to you... I took the autographies in 12/09/97, when the best band of the
world did a fuck one apresentaion here in my town (Sao Bernardo
do Campo-SP/BRASIL).

Well, NO MORE WORDS... LET'S PLAY IT!

E|---------|--------|------|-----|-----|-----|-------|-------------------------
B|---------|--------|------|-----|-3---|-----|-------|-------------------------
G|o---6/11-|---/13--|--\9--|--\4-|-2---|--6--|--4/3-o|--4---3------------------
D|o--------|--------|------|-----|-0---|-----|------o|---------/5h4------------
A|----4/9--|---/11--|--\7--|--\2-|-0---|--4--|--2/1--|--2---1-----------------
E|---------|--------|------|-----|-----|-----|-------|---------/3h2------------

E-------|-------|------|------|----|-----|-------|---|-----21-|-23-|-19-|----
B-14/19-|---21--|--17--|------|-15-|--14-|-------|---|-19-----|----|----|----
G-------|-------|------|--16--|----|-----|-16/15-|---|--------|----|----|----
D-------|-------|------|------|----|-----|-------|---|--------|----|----|----
A-------|-------|------|------|----|-----|-------|---|--------|----|----|----
E-------|-------|------|------|----|-----|-------|---|--------|----|----|----

E-----|--17--|--16--|--------|--x-|-------------------|----------------------
B-17--|------|------|--15/14-|--x-|-------------------|----------------------
G-----|------|------|--------|--x-|-------------------|----------------------
D-----|------|------|--------|----|-------------------|----------------------
A-----|------|------|--------|----|--4--5--4--x--4--5-|---------4------------
E-----|------|------|--------|----|--2--3--2--x--2--3-|-2-2-3-3-2---2-2-3-3--

E---------|------------------------|------------------------------|
B---------|------------------------|------------------------------|
G---------|------------------------|------------------------------|
D---------|------------------------|------------------------------|
A---------|---------4------x-4---5-|---------4--------------------|
E-2-2-0-0-|-2-2-3-3-2------x-2---3-|-2-2-3-3-2---5-3-2-0-3--2-0-0-|

E-----------------------|------------------------------|---------------------
B-----------------------|------------------------------|---------------------
G-----------------------|------------------------------|---------------------
D-----------------------|------------------------------|---------------------
A---------4------4----5-|---------4--------------------|-4-2-4-2-----5-2-5-2-
E-2-2-3-3-2---2--2----3-|-2-2-3-3-2----2-2-3-3-2-2-0-0-|---------3-2---------

E---------------|-------------------------------------|
B---------------|-------------------------------------|
G---------------|-------------------------------------|
D---------------|-------------------------------------|
A------4-2-4-2--|-----4-5-4-2---------5------5------5-|
E--3-2----------|-3-2---------3-2-0-0-3--0-0-3--0-0-3-|

E|-----------------------|------------------------|---------------------|----
B|--13--13--x--x--13--13-|-13--13---x--x--14---14-|-13--13--x-x--13--13-|----
G|o-11--11--x--x--11--11-|-11--11---x--x--12---12-|-11--11--x-x--11--11-|----
D|o----------------------|------------------------|---------------------|---
A|--9---9---x--x--9---9--|-9---9----x--x--10---10-|-9---9---x-x--9---9--|---
E|-----------------------|------------------------|---------------------|----

E-----------8-14-17-14-8---------16-16---16--16---|
B-13-----10--------------10------15-15---15--15---|
G-11--11---------------------11--14-14---14--14--o|
D--------------------------------13-13---14--13--o|
A-9-----------------------------------------------|
E-------------------------------------------------|


Fill 1

         Tell me            remind me                  chase the water ....
E|----------------------|--------------------------|------------------------|
B|----------------------|--------------------------|------------------------|
G|o---------------------|--------------------------|------------------------|
D|o---------------------|--------------------------|------------------------|
A|----------------------|--------------------------|------------------------|
E|-2--2--0-2---2---0-2--|-2---2----0--2---2---2--0-|-2---2---2---0--2--2---0|

 racing from                       the sky                     Always
E------------------------------|----------------------------|----------------
B------------------------------|----------------------------|----------------
G-----------------------------o|----------------------------|----------------
D-----------------------------o|----------------------------|----------------
A------------------------------|-----------------------4----|-4--4---2--4--4--
E--2--0--2---2---0--2--0--2--0-|--2--0-2---2--0--2--0--2--0-|-2--2---0--2--2-

          beside me        Taste the memories running from
E-------|-----------------------|---------------------------------|
B-------|-----------------------|---------------------------------|
G-------|-----------------------|---------------------------------|
D-------|-----------------------|---------------------------------|
A-2--4--|--4--4---2--4--4--4--2-|--4---4---4---------2--4--4----2-|
E-0--2--|--2--2---0--2--2--2--0-|--2---2---2---------0--2--2----0-|

                                   Nervous flashlights
   my eyes                         I smile at the moon  chasing
E-------------------------------|-------------------------------------------|
B-------------------------------|-------------------------------------------|
G-------------------------------|o--11--11--11-----11--11----11-------11----|
D-------------------------------|o--11--11--11-----11--11----11-------11----|
A--4--2----4----4-----4----4----|---9---9---9---9--9---9--9--9---9-9--9---9-|
E--2--0----2----2--0--2--0-2--0-|-------------------------------------------|

   scan my dreams                 Liquid shadows
   water from the sky            I argue with the clouds stealing
E-------------------------------------|-------------------------------------|
B-------------------------------------|-------------------------------------|
G--9--9--9-----9--9-----9--------9----|--7--7--7-----7--7-----7--------7----|
D--9--9--9-----9--9-----9--------9----|--7--7--7-----7--7-----7--------7----|
A--7--7--7--7--7--7--7--7--7--7--7--7-|--5--5--5--5--5--5--5--5--5--5--5--5-|
E-------------------------------------|-------------------------------------|
                                                                   Beneath a
 silence their screams           beauty from my eyes               Outside
E------------------------------|-------------------------------|-------------
B------------------------------|-------------------------------|-------------
G---4-4-4---------------------o|--4--4--4----------------------|o------------
D---4-4-4---------------------o|--4--4--4----------------------|o------------
A---2-2-2--4--4-----4-----4----|--2--2--2--4---4------4------4-|---4-4-4-4---
E----------2--2--0--2--0--2--0-|-----------2---2---0--2---0--2-|-------------

   blackned                            summer sky
   the soundness                       of your mind
E------------------------------------|------------------|--------------------
B------------------------------------|--0---------------|--------------------
G---6-------6-------6------6--6------|--2---------------|--------------------
D---6-------6-------6------6--6------|--2--4-------4----|--------------------
A---4--4-4--4---4-4-4--4-4-4--4--4-4-|--0--4-------4----|--3-4---5-----------
E------------------------------------|-----2--2-2--2--0-|------3---0-0-0--0--
       praying for time                  to desapear
       bathing your                      soul in                        silver
E----|---------------------------------|---------------------------------|---
B--6-|---------------------------------|--------10--------------12-------|---
G--5-|---------------------------------|---------9--------------11-------|---
D--3-|---------------------------------|---------7--------------9--------|---
A--3-|-4-4-4-4-4-4-4-4-4-4-4-4-4-4-4-4-|-7-7-7-7----7-7-9-9-9-9----------|---
E----|---------------------------------|-----------------------------7-7-|---

  tears
E-----2------|--------------------------|------------------------------------
B-------2----|--------------------------|------------------------------------
G--4------4--|-------------------------o|------------------------------------
D--4---------|--------5--------------3-o|------------------------------------
A--2---------|--------5--------------3--|------------------------------------
E------------|--3--3--3--1--1--1--1--1--|-12--11--10--0--8--9--10--9--8--0--6


E---------------------------|------------------------------------------------
B---------------------------|------------------------------------------------
G---------------------------|------------------------------------------------
D---------------------------|------------------------------------------------
A----------------------8--5-|--------------4--4--4---5-----------4-----------
E-7--8--7--6--0--0--0--6--3-|--2--2--3--3--2--2--2---3--2-2--3-3-2--2-2-3-3--

E----------|------------------------|------------------------|---------------
B----------|------------------------|------------------------|---------------
G----------|------------------------|--------------8---5---4-|---------------
D----------|------------------------|--4-----------8---5---4-|---------------
A----------|------------4---4--4--5-|--4-----------6---3---2-|----------4----
E-2-2--0-0-|--2-2--3-3--2---2--2--3-|--2--0-0--0-0-----------|-2-2--3-3-2----

E--------------|----------------------------|---------------------|----------
B--------------|----------------------------|---------------------|----------
G--------------|----------------------------|---------------------|----------
D--------------|-----------------2---2---2--|---------------------|----------
A--4-4---4---5-|-----------------2---2---2--|---------4--4--------|-3-4-3----
E--2-2---2---3-|--2-2--3-3--2-2--0---0---0--|-2-2-3-3-2--2--2-5-2-|-------5--

                                    Beneath a     summer sky     under a
                                    Liquid      shadows crawl   silver
E-------|------------|------------|------0----|---0----------|---0-----------
B-------|------------|------------|------0----|---0----------|---0-----------
G-------|------------|------------|o-----8----|---8----------|---8-----------
D-2---2-|-1------4---|------------|o-----9----|---9----------|---9-----------
A---4---|---2-0--4---|------------|-----------|--------------|---------------
E-------|--------2---|-0-0--0-0-2-|-----------|--------------|---------------

  glass moonlight        night awaits    the lamb's     arrival
 tearsdrops fall     the bride           subsides  to her
E-----0----------|---0----------------|----0---------|--0-------|-0---------|
B-----0----------|---0----------------|----0---------|--0-------|---4-------|
G-----8----------|---8----------------|----8---------|--8-------|-----4----o|
D-----9----------|---9----------------|----9---------|--9-------|----------o|
A----------------|--------------------|--------------|----------|-----------|
E----------------|--------------------|--------------|----------|-----------|


  survival           By your     hand      I've a      wakened    Bear this
E-0--------|--0---|------------|---------|-----------|----------|----0-------
B-0--------|--0---|-----17-----|--16-----|----12-----|----------|-------0----
G-8--------|--8---|---------16-|------14-|--------13-|----------|------------
D-9--------|--9---|------------|---------|-----------|-/14--13--|------------
A----------|------|--0---------|---------|--2--------|----------|------------
E----------|------|------------|---------|-----------|----------|-2----------

   honor in my    name                     Outside the soundness          of
E--------------|--------|-----------||--------------------------------------|
B--------------|--0-----|-----------||--------------------------------------|
G-3------------|-----3--|-----------||---------6------6------6------6--6----|
D----4--2------|--------|--4--2-----||---------6------6------6------6--6----|
A--------------|--------|--------4--||-4-4-4-4-4--4-4-4--4-4-4--4-4-4--4-4-4|
E--------------|--------|-----------||--------------------------------------|

  your mind                                 bathing your
E-------------------|--------------------|---------------------------------|
B--0----------------|------------------6-|---------------------------------|
G--2----------------|------------------5-|---------------------------------|
D--2----4------4----|------------------3-|-6-6-----6-6-------------6-6-----|
A--0----4------4----|-3-4---5----------3-|-----4-4-----4-4-4-4-4-4-----4-4-|
E-------2--2-2-2--0-|-----3---0-0-0-0----|---------------------------------|

  soul in                       silver tears
E---------------------------------|-----2-----|--------------------|---------
B---------10----------------------|-------2---|--------------------|---------
G---------9-----------------------|--4------4-|--------------------|---------
D---------7-------7-7-----9-9-----|--4--------|------5-----------3-|---------
A-7-7-7-7-----7-7-----9-9-----2-2-|--2--------|------5-----------3-|---4-4-4-
E---------------------------------|-----------|-3-3--3--1-1-1-1--1-|---------

          Beneath   a                    blackned summer sky
E-------------------------------------|----------------------|---------------
B-------------------------------------|-0--------------------|---------------
G----6------6-------6-------6--6------|-2--------------------|---------------
D----6------6-------6-------6--6------|-2--4-------4---------|---------------
A-4--4--4-4-4---4-4-4---4-4-4--4--4-4-|-0--4-------4---------|-3-4---5-------
E-------------------------------------|----2--2-2--2--0------|-----3---0-0-0-

                  praying for time                    to disapear
E-------|---------------------------------------|----------------------------
B----6--|---------------------------------------|----------------------------
G----5--|---------------------------------------|-----------10---------------
D----3--|--6-6-----------4-4------6--6-6--6-----|-----------9-------7-7------
A----3--|------4-4--4-4-------4-4-----------4-4-|-----------7---7-7-----9-9--
E-0-----|---------------------------------------|--7-7--7-7------------------
[ Tab from: http://www.guitartabs.cc/tabs/d/dream_theater/under_a_glass_moon_tab.html ]
E-----------|----2-----|------------------------------------------------|---|
B-----------|------2---|------------------------------------------------|---|
G-----------|-4------4-|------------------------------------------------|---|
D--9-9------|-4--------|------------------------------------------------|---|
A-------2-2-|-2--------|-------------------------------------------8--5-|---|
E-----------|----------|-12-11-10-0--8-9-10-9-8-0--6-7-8-7-6-0-0-0-6--3-|---|

E-------------|------|--------------|---------------------|------------------|
B-------------|------|--------------|---------------------|------------------|
G-o-----------|------|-------------o|o--------------------|------------------|
D-o--4-4---4--|-4----|-4--4---2----o|o---1---1-2----------|-1-----2-------1--|
A--------4----|----4-|------------4-|--4---4-----------4--|-----4-------4---4|
E-------------|------|--------------|------------2-2-2----|---2-----2-2------|

E-------------|--------------|----------------------------------------------|
B-------------|--------------|----------------------------------------------|
G------------o|o-------------|---------------------------------------------o|
D------------o|o-4--4--4--4--|-7-----6---6--7----4--4--4-----4-------------o|
A---2---0-----|--4--6--4--6--|-7--4--6-4-6--7----4--6--4-----2-----4------4-|
E-2---2---2-0-|--------------|---------------------------2-2---2-2-2--2-2-2-|

                                                          /-------\
E--12*--------|-----------------------------------------|--------------------
B--12----14-14|-14/12--12--12--12/7--7-7-7/9-9-9/5-5-5--|-4--5--4--2---------
G-------------|-----------------------------------------|-------------4/2----
D-------------|-----------------------------------------|--------------------
A-------------|-----------------------------------------|--------------------
E-------------|-----------------------------------------|--------------------
  * Full
               /-----\
E------------------------|----12--16--12------------------------------|------
B------------------------|-5/-------------14--12----------------------|------
G-6*--(6)6--4------------|------------------------13-9----------------|------
D--------------6-4-------|-----------------------------11-9-----------|------
A------------------6-4--6|-----------------------------------11-7-----|------
E------------------------|----------------------------------------9-7-|-0-5-4

                                         /-----\ /------\  /-----\     1/2            1/2       /---------\
E----|------------------------------|----------------------------------------
B----|/5--7-5--0-7--9-7-0--12*---9--|--11-----------------------9------------
G----|------------------------------|-----------------------------11-9-------
D----|------------------------------|----------------------------------11-9-8
A----|------------------------------|----------------------------------------
E--3-|------------------------------|----------------------------------------

             /---\
E----9--11--12-11-9----------------------------------------|-----------------
B-12----------------12--11--9------------------------------|-----------------
G------------------------------11-9-8----------------------|-----------------
D-------------------------------------11-9-8---------------|--------11-------
A--------------------------------------------11-9-7--------|---11------------
E---------------------------------------------------11-9-7-|-9----------9----

                                 /-----\
E-12--12--12--12-|--------------------------|----------------|---------------
B-11--11--11--11-|--------------------------|------------12*-|-14/12---------
G----------------|-----9--------------------|----------------|---------------
D----------------|-----9---11/9-------------|-------11-------|---------------
A----------------|-/11-----------9-10-9-7---|----11----------|---------------
E----------------|------------------------9-|--9-------9-----|---------------

  /---------\  /--------\   1/2
E-----------------------------------|-----------14---13--11--------|---------
B-----------------------------------|-----12----------------14--12-|---------
G-13-12-13-12--11--9--11-9---11--9--|-/11----11--------------------|---------
D-----------------------------------|------------------------------|---------
A-----------------------------------|------------------------------|---------
E-----------------------------------|------------------------------|---------


E----13-14-16-14-13-14-13----13---------|-19-----------------------------|---
B-16----------------------16----16-14-16|----16--------------------------|---
G---------------------------------------|-------16----------16--------18-|---
D---------------------------------------|----------16-13-----------16----|---
A---------------------------------------|----------------14-----14-------|---
E---------------------------------------|--------------------------------|---

                                             /------\
E-------------------------------------14-16--18-16-14------------------------
B----------------------------14-16-17----------------------------------------
G-------------------13-15-16-------------------------------------------------
D----------13-14-16----------------------------------------------------------
A-13-14-16-------------------------------------------------------------------
E----------------------------------------------------------------------------

E-19*-19*-~-----|--19-------16-------19-------16-------19-------16-|------14-
G------------12-|-----17/14----14/17----17/14----14/17----17/14----|-17*-----
G---------------|--------------------------------------------------|---------
D---------------|--------------------------------------------------|---------
A---------------|--------------------------------------------------|---------
E---------------|--------------------------------------------------|---------

E-----------14-----------14-----------14-------14-----14-----14|-------------
B-17-14-17*----17-14-17*----17-14-17*----17*------17*----17*---|-17-16-14----
G--------------------------------------------------------------|----------17-
D--------------------------------------------------------------|-------------
A--------------------------------------------------------------|-------------
E--------------------------------------------------------------|-------------
                                                        B      T
                                                     /-----\   /------\
E---------------------------------|----------------|-------------------------
B---------------------------------|----------------|-5-(5)-5---12(12)12---5--
G--16--15-14----------------------|-------------4--|-------------------------
D------------16-14----------16----|-----4---6------|-------------------------
A------------------16-15-14----14-|---2------------|-------------------------
E---------------------------------|-0--------------|-------------------------
  T
  /------\                 /----------------\
E-12(12)12---7-|-12----------------------------------------------------------
B--------------|-12--------12--14--17--14--12-------------12-----------------
G--------------|--------13----------------------13-----13--------------------
D--------------|-----14-----------------------------14-----------------------
A--------------|-------------------------------------------------------------
E--------------|-------------------------------------------------------------

  /------------------\                   /---------\  T
E-12-14-16-18-16-14-12-------|-----------12-14-16-18--21-18-16-14-12-14-16-18
B----------------------12----|--------12-------------------------------------
G-------------------------13-|-----13----------------------------------------
D----------------------------|--14-------------------------------------------
A----------------------------|-----------------------------------------------
E----------------------------|-----------------------------------------------
                                         (DIVE BACK)
  T                                       1/2            1/2       1/2
E-21-18-16-14-12--14-16-18-|------|-----------------------------------------
B--------------------------|-14*--|-11-14-11----------14-11-----14-11--------
G--------------------------|------|------------------------------------------
D--------------------------|------|------------------------------------------
A--------------------------|------|------------------------------------------
E--------------------------|------|------------------------------------------

    (RELEASE VIOLENTLY)
E-----------------------|----------------------11--12/11----14/11----16/12-|-
B--14-11~~~~------------|-12/11----11-14/11--------------12-------12-------|-
G-----------------------|-------13----------13-----------------------------|-
D-----------------------|--------------------------------------------------|-
A-----------------------|--------------------------------------------------|-
E-----------------------|--------------------------------------------------|-

                             /--------\        (RELEASE AGAIN)
E----18/14----19/16----19*-|-----------------------------------|-------------
B-14-------16-------17-----|-19*-19---16-----------------------|-------------
G--------------------------|-----------------------------------|-18*--(18)---
D--------------------------|--------------18*--(18)/8---16-----|-------------
A--------------------------|-----------------------------------|-------------
E--------------------------|-----------------------------------|-------------

E--------------------|-------------------------16-17-18--19-19-18-17-16------
B-16--18--16~~~~~~~~~|-------------16-17-18-19--------------------------19---
G--------------------|-15-16-17-18-------------------------------------------
D--------------------|-------------------------------------------------------
A--------------------|-------------------------------------------------------
E--------------------|-------------------------------------------------------

E----------------|-----------------------------------------------------------
B-18-17-16-------|-----------------------------------------------------------
G----------18-17-|-16--15-18-17-16-15----------------------------------------
D----------------|--------------------18-17--16-15---------------------------
A----------------|---------------------------------18--17-16-15--------------
E----------------|----------------------------------------------18-17-16-15--

E-------------||-----|--|------|-----|----|---|-----|----|------|----|----|--
B-------------||-----|--|------|-----|-4--|---|--6--|----|--9---|----|-5--|--
G-------------||-----|--|--4/--|-----|-6--|---|--8--|----|--11--|----|-11-|--
D-------------||--11-|--|------|-----|-6--|---|--8--|----|--11--|----|-9--|-
A-------------||--11-|--|------|-----|-4--|---|--6--|----|--9---|----|-7--|--
E-13-12-10--11||--9--|--|------|-----|----|---|-----|----|------|----|----|--

E----|---|---|-------|-----|-----|-----|-----|----|-------------------------|
B-4--|---|-6-|--11---|--5--|--4--|--6--|--9--|--5-|--4--4--4--4--4---4----4-|
G-6--|---|-8-|--13---|--11-|--6--|--8--|--11-|--11|--6--6--6--6--6---6----6-|
D-6--|---|-8-|--13---|--9--|--6--|--8--|--11-|--9-|--6--6--6--6--6---6----6-|
A-4--|---|-6-|--11---|--7--|--4--|--6--|--9--|--7-|--4--4--4--4--4---4----4-|
E----|---|---|-------|-----|-----|-----|-----|----|-------------------------|

E-------------------------|-------------------------|----------|-----------|-
B-4--4--4--4--4----4----4-|--6--6--6--6--6---6---6--|--9---9---|--5----5---|-
G-6--6--6--6--6----6----6-|--8--8--8--8--8---8---8--|--11--11--|--11---11--|
D-6--6--6--6--6----6----6-|--8--8--8--8--8---8---8--|--11--11--|--9----9---|-
A-4--4--4--4--4----4----4-|--6--6--6--6--6---6---6--|--9---9---|--7----7---|-
E-------------------------|-------------------------|----------|-----------|-

    Outside the soundness                of  your mind
E---------------------------------------------|--------|----------------|----
B---------------------------------------------|---0----|----------------|----
G----------6------6--6------6-------6--6------|---2----|----------------|----
D----------6------6--6------6-------6--6------|---2----|--4------4------|----
A--4-4-4-4-4--4-4-4--4--4-4-4---4-4-4--4--0-0-|---0----|--4------4--2-2-|----
E---------------------------------------------|--------|--2--2-2-2------|----

                 bathing your               soul in       silver tears
E--------------|--------------------------|-------------|--0------------|----
B--------------|--------------------------|-------------|----4----------|----
G--4------4--4-|-----------6------6--6--9-|--9--11---11-|------4--------|----
D--4------4--4-|-----------6------6--6--9-|--9--11---11-|--------4------|----
A--2--2-2-2--2-|---4-4-4-4-4--4-4-4--4--7-|--7--9----9--|---------------|----
E--------------|--------------------------|-------------|---------------|----

                        Beneath a blackned                          summer
E------0-------0---|----------------------------------------------|----------
B--------0-------0-|----------------------------------------------|----0-----
G------------------|------------6------6--6------6------6--6------|----2-----
D------------------|------------6------6--6------6------6--6------|----2-----
A---5--------3-----|---4-4-4-4--4--4-4-4--4--4-4-4--4-4-4--4--0-0-|----0-----
E---3--------1-----|----------------------------------------------|----------

   sky                                                        praying for
E---------|-------------------------|----------------------|-----------------
B---------|-------------------------|----------------------|-----------------
G---------|-------------------------|--4----------4------4-|----------6------6
D---------|--4-------4--4-----------|--4----------4------4-|----------6------6
A---------|--4-------4--4-----------|--2--2-2-2-2-2--2-2-2-|--4-4-4-4-4--4-4-4
E-----2-2-|--2--2-2--2--2------2-2--|----------------------|-----------------

    time    to desapear
E--------|---------------|-0-------|-----------------------------------------
B--------|---------------|---4-----|-----------------------------------------
G--6--6--|--9------11-11-|-----4---|-----------------------------------------
D--6--6--|--9------11-11-|-------4-|-----------------------------------------
A--4--4--|--7------9--9--|---------|-----------------------------------------
E--------|---------------|---------|-12-11-10-0-8-9-10-9-8-0-6-7-8-7-6-0-0-0-

E------||---------|--4--|-----|-2-----|---------0-|-2-----|------------------
B------||-------7-|-----|--5--|---5---|-3----3----|----2--|------------------
G------||--6----6-|-----|--4--|-----4-|-2---------|----2--|------------------
D------||--4----4-|-----|--2--|-------|-0--0------|----0--|------------------
A-8--5-||--4------|-----|--2--|-------|-0---------|-------|---------4----3---
E-6--3-||---------|-----|-----|-------|-----------|-------|-2-2-3-3-2--2-----

E--------|-------------------------------------------------------------------
B--------|-------------------------------------------------------------------
G--------|-------------------------------------------------------------------
D--------|-------------------------------------------------------------------
A---1----|---4--4------------------------------------------------------------
E-0---0--|---2--2------------------------------------------------------------


Well, that's "only" it.... it's really difficult to learn it, but after that,
becomes cool play, especially if the rest of your band play it too...


=--=-=--=--=-=--=-=--=-=--=-=--=-=--=-=--=-=--=-=--=-=--=-=--=-=--=-=--=-=--=-
Comments