Dream Theater - Under A Glass Moon Chords & Tabs

 

Under A Glass Moon Chords & Tabs

Dream Theater Chords & Tabs

Version: 1 Type: Bass Tab 0 ratings
1 star 2 stars 3 stars 4 stars 5 stars
comments

Under A Glass Moon Bass Tab

   
Band- Dream Theater
Song- Under A Glass Moon

0:26
G--------------------------------------------------------------------------|
D----------4-----4----------4-----------4-4-4-4----------4----4---------4--|
A--------------------------------------------------------------------------|
E--2-2-2-2-----2----2-2-2-2----2-2-2-2-----------2-2-2-2----2---2-2-2-2----|


G---------------------------------------------------------------------------|
D----------4-4-4-4----------4---4----------4---------4-4-4-4----------4---4-|
A---------------------------------------------------------------------------|
E-2-2-2-2-----------2-2-2-2---2----2-2-2-2----2-2-2-2---------2-2-2-2---2---|


G---------------------------------------------------------------------------|
D---------4-4-4-4---------4-4-----------4----4---------4----------4---------|
A---------------------------------------------------------------------------|
E-2-2-2-2---------2-2-2-2------2-2-2-2-----2---2-2-2-2----2-2-2-2---2-2-2-2-|


G----------------------------------------------------------------------------|
D-4-4-4-4---------4----4----------4---------4-4-4-4-----------4---4----------|
A----------------------------------------------------------------------------|
E---------2-2-2-2----2----2-2-2-2---2-2-2-2----------2-2-2-2----2----2-2-2-2-|

								End intro
G--------------------------------------------------------------------------|
D--4----------4-4-4-4---------4---4----------4-4-4-4---------4-4-4-4-------|
A--------------------------------------------------------------------------|
E-----2-2-2-2---------2-2-2-2---2----2-2-2-2---------2-2-2-2---------------|

  0:53
G---------------------------------------------------------------------------|
D---------------------------------------------------------------------------|
A---------------------------------------------------------------------------|
E-2-2-3-3-2--2--3--2-2-3-3-2---2-2-3-3-2-2-0-0--2-2-3-3-2---2---3-----------|

             (0:58)
G---------------------------------------------------------------------------|
D---------------------------------------------------------------------------|
A------------0--------------------------------------------------------------|
E-2-2-3-3-2----3-2-0-3-2-0-0---2-2-3-3-2--2--3--2-2-3-3-2---2-2-3-3-2-2-0-0-|

  (The cool part now...........................................)
G---------------------------------------------------------------------------|
D-------------0---0---------------------------------------------------------|
A-4-2-4-2-------2---2------4-2-4-2-----4-5-4-2------------------------------|
E---------3-2---------3-2----------3-2---------3-2-0-0-3--0-0-3-------------|

G---------------------------------------------------------------------------|
D---------------------------------------------------------------------------|
A---------------------------------------------------------------------------|
E-2-2-2-2-2-2-2-2-2-2-2-2-2-2-2-2-2-2-2-2-2-2-2-2-3-3-3-3-3-3-3-3-2-2-2-2-2-|

G---------------------------------------------------------------------------|
D---------------------------------------------------------------------------|
A---------------------------------------------------------------------------|
E-2-2-2-2-2-2-2-2-2-2-2-2-2-2-2-2-2-2-2-5-5-6-6-7-7-8-8-2-2-2-2-2-2-2-2-2-2-|

G---------------------------------------------------------------------------|
D---------------------------------------------------------------------------|
A---------------------------------------------------------------------------|
E-2-2-2-2-2-2-2-2-2-2-2-2-2-2-0-0-0-0-0-0-0-0-2-2-2-2-2-2-2-2-2-2-2-2-2-2-2-|

			Another cool part... 3 times
G-----------------0-0-|------------------------------------------------------|
D---------0-1-2-4-----|------------------------------------------------------|
A-----2-3-------------|------------------------------------------------------|
E-4-5-----------------|--2--2--0-2--2--0-2--2--2--0-2--2--2--0--2--2--2--0-2-|

				1:50 - This riff plays 2 times
G-----------------------------|---------------------------------------------|
D-----------------------------|---------------------------------------------|
A-----------------------------|---------------------------------5-5-5-5-5-5-|
E-2--0--2--0-2--2--0-2-0-2-0--|-2-2-2-2-2-2-2-2-0-0-0-0-0-0-0-0-------------|
				"Nervous flashlights scan my dreams...


				   2:10 - Fast part
G--------------4-----------------|------------------------------------------|
D------------4-------------------|------------------------------------------|
A-5-5-4-4--2---------------------|--4-4-4-4-4-4-4-4-4-4-4-4-4-4-4-4-4-4-4-4-|
E----------------2--2--0-2-0-2-0-|------------------------------------------|
				   Outside the soundness..

G----------------------------------------------------------------------------|
D----------------------------------------------------------------------------|
A-4-4-4-4--------------------------------------------------4-5---5---------5-|
E---------5-5-5-5-5-5-5-5-5-5-5-5-2-2-2-2-2-2-2-2-2-2-2-2------3---0-0-0-0---|

G---------------------------------------------------------------------------|
D---------------------------------------------------------------------------|
A-4-4-4-4-4-4-4-4-4-4-4-4-4-4-4-4---------------------------------2-2-2-2-2-|
E---------------------------------0-0-0-0-0-0-0-0-2-2-2-2-2-2-2-2-----------|

G-----------4----------------------------------------------------------------|
D---------4---4--------------------------------------------------------------|
A-2-2-2-2--------------------------4-4-4-4-4-4-4-4-4-4-4-4-4-4-4-4-4-4-4-4-4-|
E-----------------3-3-3--0-0-0-0-0-------------------------------------------|

G---------------------------------------------------------------------------|
D---------------------------------------------------------------------------|
A-4-4-4--------------------------------------------------4-5---5---------5--|
E-------5-5-5-5-5-5-5-5-5-5-5-5-2-2-2-2-2-2-2-2-2-2-2-2------3---0-0-0-0----|

G---------------------------------------------------------------------------|
D---------------------------------------------------------------------------|
A-4-4-4-4-4-4-4-4-4-4-4-4-4-4-4-4---------------------------------2-2-2-2-2-|
E---------------------------------0-0-0-0-0-0-0-0-2-2-2-2-2-2-2-2-----------|

				 2:36 (Bridge)
G------------------------------|---------------------------------------------|
D------------------------------|---------------------------------------------|
A-2-2-2-2-2-2-2-2-2-2-2-2-2-2--|--2------------------------------------------|
E------------------------------|----3-2-2-3-3-2---2--3---2-2-3-3-2---2-2-3-3-|
...for time to disappear..

G----------------------------------------------------------------------------|
D----------------------------------------1-----------------------------------|
A------------------------------------------3-2-------------------------------|
E-2-2-0-0-2-2-3-3-2---2---3----2-0-0-0-0-------2-2-3-3-2----2---2--3---2-2-3-|

G--------------------------------------------------------------------------|
D------------------------------------------------2-----1-------------------|
A----------------------------------------3-4-3-----4-2---2-0---------------|
E-3-2-2-0---0---0---2-2-3-3-2--2--3--2---------5-------------0--0-0-0-0-2--|

G----------------------------------------------------------------------------|
D---------4-------------4-------------4------------4-------------4-----------|
A----------------------------------------------------------------------------|
E-2-2-2-2---2-2-2-2-2-2---2-2-2-2-2-2---2-2-2-2-2-2--2-2-2-2-2-2---2-2-2-2-2-|
  Beneath a summer sky, under glass moonlight...


G---------------------------------------------------------------------------|
D-4------2----------------4-------------4-------------4-------------4-------|
A----------4-0-2------------------------------------------------------------|
E---2-2-----------2-2-2-2---2-2-2-2-2-2---2-2-2-2-2-2---2-2-2-2-2-2---2-2-2-|

G----------------------------------------------------------------------------|
D-------4-------------4--------------4-----2-2-----2-----------4-------------|
A----------------------------------------------4-2---------------------------|
E-2-2-2---2-2-2-2-2-2----2-2-2-2-2-2---2-2-------------2-2-2-2---2-2-2-2-2-2-|

G---------------------------------------------------------------------------|
D--4-------------4-------------4-------------4-------------4-------------4--|
A---------------------------------------------------------------------------|
E----2-2-2-2-2-2---2-2-2-2-2-2---2-0-2-2-2-2---2-2-2-2-2-2---2-2-2-2-2-2----|

G----------------------------------------------------------------------------|
D-----2---2-------------4-------------4-------------4-------------4----------|
A-------4--------------------------------------------------------------------|
E-2-2-------2-2-2-2-2-2---2-2-2-2-2-2---2-2-2-2-2-2---2-2-2-2-2-2----2-2-2-2-|

		     3:20
G---------------------------------------------------------------------------|
D-----4-----2---------------------------------------------------------------|
A-------------4-0-2---0-0-0-0-0-0-0-0-0-0-0-0-0-0-0-0-0-0-0-0-2-2-2-2-2-2-2-|
E-2-2---2-2-----------------------------------------------------------------|
			By your hand...
[ Tab from: http://www.guitartabs.cc/tabs/d/dream_theater/under_a_glass_moon_btab.html ]
G---------------------------------------------------------------------------|
D--------------------4-------------4-------------4-------------4------------|
A-2-2-2-2-2-----------------------------------------------------------------|
E------------2-2-2-2---2-2-2-2-2-2---2-2-2-2-2-2---2-2-2-2-2-2---2-2-2-2-2--|

G---------------------------------------------------------------------------|
D---------------------------------------------------------------------------|
A-----------------4-4-4-4-4-4-4-4-4-4-4-4-4-4-4-4-4-4-4-4-4-4-4-0-0-0-0-0-0-|
E-2-2-2-2-2-2-2-2-----------------------------------------------------------|
                    Outside the soundness of your mind..


				3:38
G----------------------------------------------------------------------------|
D----------------------------------------------------------------------------|
A-0-0-0--------------------------4-5---5---------5---4-4-4-4-4-4-4-4-4-4-4-4-|
E-------2-2-2-2-2-2-2-2-2-2-2-2------3---0-0-0-0-----------------------------|

G-------------------------------------------------------------4-------------|
D-----------------------------------------------------------4---4-----------|
A-4-4-4-4---------------------------------2-2-2-2-2-2-2-2-2-----------------|
E---------0-0-0-0-0-0-0-0-2-2-2-2-2-2-2-2-------------------------3--3--3---|

G---------------------------------------------------------------------------|
D---------------------------------------------------------------------------|
A-----------4-4-4-4-4-4-4-4-4-4-4-4-4-4-4-4-4-4-----------------------------|
E-0-0-0-0-0-------------------------------------5-5-5-5-5-5-5-5-5-5-5-2-2-2-|

G---------------------------------------------------------------------------|
D---------------------------------------------------------------------------|
A------------------4-5---5---------5--4-4-4-4-4-4-4-4-4-4-4-4-4-4-----------|
E-2-2-2-2-2-2-2-2------3---0-0-0-0--------------------------------0-0-0-0-0-|

						       4:00 Bridge to guitar
							         solo
G-----------------------------------------------------|---------------------|
D-----------------------------------------------------|------------------4--|
A-----------------------2-2-2-2-2-2-2-2-2-2-2-2-2-2-2-|-1----1---------4----|
E-0-0-0-2-2-2-2-2-2-2-2-------------------------------|---3----3--2-2-------|

G---------------------------------------------------------------------------|
D-4----4--4---2-4-2-----4-4----4--4----4---4----2-4-2-----------4--4----4---|
A---4---------------4--------4------4-----------------4-------4------4------|
E--------------------------------------------------------2-2----------------|

						     4:20
G----------------------------------------------------------------------------|
D--4---2-4-2-----4--4-----4--4-----4--4---2-4-2--------1---1-2---------1-----|
A------------4---------4--------4---------------4----4---4-----------4-----4-|
E--------------------------------------------------------------2-2-2-----2---|


G---------------------------------------------------------------------------|
D-1-----2--------1-----------------------1---1-----------1------2-------1---|
A-----4--------4---4---2-----0-2-0-----4---4-----------4------4-------4---4-|
E---2------2-2-------2----2--------2-0-----------2-2-2------2-----2-2-------|


G---------------------------------------------------------------------------|
D---------------------------------------------------------------------------|
A---4----0-2-0-----------------------0-2-0-3-4------2-0---------------------|
E-2----2-------2-0---2-4-2-4---2-2-2------------2-2------2--2--2-2-4-2-4----|

				      Only bass
				      plays this       Guitar starts solo
G--------------------------------|-------------------|----------------------|
D--------------------------------|-------------------|---------4------------|
A--------0-2-0-3-4------2-0------|---0-2-0-----------|----------------------|
E--2-2-2------------2-2------2-2-|-2-------4-2-0-2-0-|-2-2-2-2---2-2-2-2-2--|


G---------------------------------------------------------------------------|
D-4-------------4-------------4---------------4-------------4---------------|
A---------------------------------------------------------------------------|
E---2-2-2-2-2-2---2-2-2-2-2-2----2-2-2-2-2-2----2-2-2-2-2-2---2-2-2-2-2-2---|

			   4:47
G-----------------------------------------------------------------------6---|
D--4--------------------------4-2~---4-2-----2-----4-2---4-2----------6-----|
A--------0-0-0-0-2-2-2-2----2------------2-2-----2-----2-----2~~---4--------|
E----2-2------------------0--------------------0----------------------------|

  4:53				5:03
G---------6-------6--------6----------4----4-4---------2-2-2-------4---4--4-|
D----6---------6-------6----------------------------------------------------|
A--4---4-----4-------4---4------2-2-2----2-------2-2-2-------2-2-2---2------|
E---------------------------------------------------------------------------|


G---------------------------------------------------------------------------|
D----------------4-------------4-------------4-------------4-------------4--|
A-2~~-----------------------------------------------------------------------|
E--------2-2-2-2---2-2-2-2-2-2---2-2-2-2-2-2---2-2-2-2-2-2---2-2-2-2-2-2----|


G---------------------------------------------------------------------------|
D--------------4-------------4-------------------------4-2-4-2-----2-----4--|
A----------------------------------0-0-0-0-2-2-2-2---2---------2~~-----2----|
E--2-2-2-2-2-2---2-2-2-2-2-2---2-2-----------------0-----------------2------|

		5:23
G----------------------6--------6----------6--------6--------4-3-1----------|
D--2---4-2---------6--------6----------6--------6------------------2--------|
A----2-----2~----4---4----4---4------4---4----4---4------4-4----------------|
E---------------------------------------------------------------------------|

					    End guitar solo
G-------4----4-4-------2-2-2-------4----4-4--4-3-2-1-4---------|------------|
D-------------------------------------------------------1------|------------|
A-2-2-2----2-----2-2-2-------2-2-2----2-------------------4-2--|------------|
E--------------------------------------------------------------|------------|

  Keyboard solo:
 5:34 until 6:00
  only this             6:00		      6:02
G--------------------|----------------------|------6-----6---------6--------|
D--------------------|--6-6-6-6-6-6-6-6-6-6-|-------------------------------|
A-4-4-4-4-4-4-4-4-4--|----------------------|--4-4---4-4---4-4-4-4---4-4-4--|
E--------------------|----------------------|-------------------------------|

G--------------8--------------------------------11--------------------------|
D---------------------------------------------------------------------------|
A-4-4-4-4--6-6---6-6-6-6-6-6-6-6-6-6-6--9-9-9-9----9-9-9-9-9-9-9-9-9-9-9-9--|
E---------------------------------------------------------------------------|

             End keyboard solo     6:11 - Another cool part
G-----------------1-1-1-1-3-3-4-|-------------------------------------------|
D-2-2-2-2-4-4-4-4---------------|-------------------------------------------|
A-------------------------------|--4-4-4-4-4---4--4--4-4-4-4-4---4-4-4-4----|
E-------------------------------|-------------------------------------------|

G------------------------------------------------------------------------|--|
D-1-1-1-1-1---1--1---1---1-1----4-4-4-4-4----4-4-4-4---2-2-2-2--2-2---2--|--|
A------------------------------------------------------------------------|--|
E------------------------------------------------------------------------|--|

  The fast part again
G---------------------------------------------------------------------------|
D---------------------------------------------------------------------------|
A---4-4-4-4-4-4-4-4-4-4-4-4-4-4-4-4-4-4-4-----------------------------------|
E-----------------------------------------5-5-5-5-5-5-5-5-5-5-5--2-2-2-2-2--|
  Outside the soundness of your mind....

G---------------------------------------------------------------------------|
D---------------------------------------------------------------------------|
A-2-2-2-2-2-2-2-2-2-2-2--4-4-4-4-4-4-4-4-4-4-4-4-4-4------------------------|
E----------------------------------------------------0-0-0-0-0-0-0-2-2-2-2--|

G-----------9-7-4-----------------------------------------------------------|
D-----------------4---------------------------------------------------------|
A----------------------------4-4-4-4-4-4-4-4-4-4-4-4-4-4-4-4-4-4-4-4--------|
E-2-2-2-2------------3~--0~------------------------------------------5-5-5--|

G---------------------------------------------------------------------------|
D---------------------------------------------------------------------------|
A---------------------------------------------2-2-2-2-2-2-2-2-4-4-4-4-4-4-4-|
E-5-5-5-5-5-5-2-2-2-2-2-2-2-2-2-2-2-2-2-2-2-2-------------------------------|

					  The end...
G------------------------------9-7-4---|------------------------------------|
D------------------------------------4-|---------4------4---------4---------|
A-4------------------------------------|------------------------------------|
E---0-0-0-0-0-0-0-2-2-2-2-2-2----------|-2-2-2-2-----2----2-2-2-2---2-2-2-2-|

G---------------------------------------------------------------------------|
D-4-4-4-4---------4------4---------4---------4-4-4-4----------4------4------|
A---------------------------------------------------------------------------|
E---------2-2-2-2-----2----2-2-2-2---2-2-2-2----------2-2-2-2----2----------|

G---------------------------------------------------------------------------|
D----------4----------4-4-4-4-----------------------------------------------|
A-----------------------------------------------3----1----------------------|
E--2-2-2-2----2-2-2-2----------2-2-3-3-2-2----2---0----0--2-2---------------|
Comments