Dream Theater - This Dying Soul Chords & Tabs

 

This Dying Soul Chords & Tabs

Dream Theater Chords & Tabs

Version: 1 Type: Bass Tab 0 ratings
1 star 2 stars 3 stars 4 stars 5 stars
comments

This Dying Soul Bass Tab

   
Band- Dream Theater
Song- This Dying Soul

E Q  E Q      S S S S S S S S S S S S S S S S  6x
|-----------||-----------------------------------||
|-----------||o---------------------------------o||
|-----------||-----------------------------------||
|-----------||-----------------------------------||
|-4----4----||o---------------------------------o||
|---3----2--||--0-0-0-0-0-0-0-0-0-0-0-0-0-0-0-0--||


   S S S S S S S S S S S S S S S S
|-----------------------------------|
|-----------------------------------|
|-/9-9-9-9-9-9-9-9-9-9-9-9-9-9-9-9--|
|-----------------------------------|
|-----------------------------------|
|-----------------------------------|


  S S S S S S S S S S S S S S S S
|---------------------------------|
|---------------------------------|
|-9-9-9-9-9-9-9-9-9-9-9-9-9-9-9-9-|
|---------------------------------|
|---------------------------------|
|---------------------------------|


    S S S S S S S S S S S S S S S S  3x S S S S S S S S S S S S S S S S
||-----------------------------------||---------------------------------|
||o---------------------------------o||---------------------------------|
||--9-9-9-9-9-9-9-9-9-9-9-9-9-9-9-9--||-9-9-9-9-9-9-9-9-9-9-9-9-9-9-9-9-|
||-----------------------------------||---------------------------------|
||o---------------------------------o||---------------------------------|
||-----------------------------------||---------------------------------|


    S S S S S S S S S S S S S S S S  3x S S S S S S S S S S S S S S S S
||-----------------------------------||----------------------------------|
||o---------------------------------o||----------------------------------|
||--9-9-9-9-9-9-9-9-9-9-9-9-9-9-9-9--||-9-9-9-9-9-9-9-9-9-9-9-9-9-9-9-9\-|
||-----------------------------------||----------------------------------|
||o---------------------------------o||----------------------------------|
||-----------------------------------||----------------------------------|


    N.C.(B5)
    S S S S E S S +S  S E Q
||---------------------------|
||o--------------------------|
||---------------------------|
||---------------------------|
||o--------------------------|
||--0-0-0-0-0-0-0-(0)-0-0----|


                        N.C. N.C.(B5)
  S S S S E S S +S  S E Q    S S S S E S S +S  S E Q
|--------------------------|----------------------------|
|-----------------------5--|----------------------------|
|-----------------------4--|----------------------------|
|-----------------------3--|----------------------------|
|--------------------------|----------------------------|
|-0-0-0-0-0-0-0-(0)-0-0----|-0-0-0-0-0-0-0-(0)-0-0------|


  1.                            2.
                                              N.C.
 7/8                           5/4
                                              |-3-| |-3-|
  S S S S E S S S S S S S S     S S S S E S S q q q E E E
|----------------------------||---------------------------||
|---------------------------o||---------------------------||
|----------------------------||---------------------------||
|----------------------------||---------------------------||
|---------------------------o||---------------------------||
|-0-0-0-0-0-0-0-3-2-0-3-2-0--||-0-0-0-0-0-0-0-1-2-3-1-0-0-||


   Guitar Solo
    B5C#5       D5C#5               B5C#5       D5C#5
   4/4
    E E E E E E E E   E E Q  H      E E E E E E E E   E E Q  H
||------------------|-------------|-----------------|--------------||
||o-----------------|-------------|-----------------|-------------o||
||------------------|-------------|-----------------|--------------||
||------------------|-------------|-----------------|--------------||
||o-----------------|-------------|-----------------|-------------o||
||--0-2---2---2-3-2-|---2---------|-0-2---2---2-3-2-|---2----------||


 Guitar Break
  N.C.(B5)
 3/4
  E E E E +E  E   Q  E E Q    E E E E +E  E   Q  E E Q
|---------------|-----------|---------------|-----------|
|---------------|-----------|---------------|-----------|
|---------------|-----------|---------------|-----------|
|---------------|-----------|---------------|-----------|
|-5h7-7-7-(7)-7-|-7------7--|-5h7-7-7-(7)-7-|-7------7--|
|---------------|----0-0----|---------------|----0-0----|


  N.C.(E5)                        G              B5/A
  E E E E +E  E   E E E E +E  E   Q.   E +E  E   E E E E E E
|---------------|---------------|--------------|-------------|
|---------------|---------------|--------------|-------------|
|---------------|---------------|--------------|-----7---5h7-|
|-5h7-7-7-(7)-7-|-5h7-7---------|--------------|-------------|
|---------------|-------0-(0)-0-|-3----3-(3)-3-|-5-5---5-----|
|---------------|---------------|--------------|-------------|


  N.C.(B5)                                    G
  E E E E +E  E   Q  E E Q    E E E E +E  E   Q  Q  Q
|---------------|-----------|---------------|----------|
|---------------|-----------|---------------|----------|
|---------------|-----------|---------------|----------|
|---------------|-----------|---------------|----------|
|-5h7-7-7-(7)-7-|-7------7--|-5h7-7-7-(7)-7-|-3--3--3--|
|---------------|----0-0----|---------------|----------|


  B5/F#                     E5             N.C.
  Q.   E +E  E   Q  Q  Q    Q.   E +E  E   Q  Q  Q
|--------------|----------|--------------|----------||
|--------------|----------|--------------|----------||
|--------------|----------|--------------|----------||
|--------------|----------|--------------|----------||
|-2----2-(2)-2-|-2--2--2--|-0----0-(0)-0-|----------||
|--------------|----------|--------------|-3--1--0--||


   Keyboard solo
    E5                N.C.(C#5)         C5                N.C.
   5/4
    Q.   Q  E Q  Q    Q.   Q  E Q  Q    Q.   Q  E Q  Q    Q.   Q  E Q  Q
||------------------|-----------------|-----------------|------------------|
||o-----------------|-----------------|-----------------|------------------|
||------------------|-----------------|-----------------|------------------|
||------------------|-4----4--4-4--4--|-3----3--3-3--3--|------------------|
||o-0----0--0-0--0--|-----------------|-----------------|-2----2--0-2--3---|
||------------------|-----------------|-----------------|------------------|


                                                       1.
  E5                N.C.(C#5)         C5                A5           N.C.
                                                       6/4
                                                                     |-3-|
  Q.   Q  E Q  Q    Q.   Q  E Q  Q    Q.   Q  E Q  Q    Q.   Q.   Q  Q Q Q
|-----------------|-----------------|-----------------|----------------------||
|-----------------|-----------------|-----------------|---------------------o||
|-----------------|-----------------|-----------------|----------------------||
|-----------------|-4----4--4-4--4--|-3----3--3-3--3--|-0----0----0----------||
|-0----0--0-0--0--|-----------------|-----------------|--------------3-2-1--o||
|-----------------|-----------------|-----------------|----------------------||


  2.
  A5                     N.C.(B5)
 6/4                    3/4
                               ~~~~~~          ~~~~~~          ~~~~~~
  Q.   Q  E Q  Q  Q      E E E E +E  E   E E E E +E  E   E E E E +E  E
|--------------------||----------------|---------------|----------------|
|--------------------||o---------------|---------------|----------------|
|--------------------||----------------|---------------|----------------|
|-0----0--0-0--0--0--||----------------|---------------|----------------|
|--------------------||o-5-7---7-(7)-7-|-8-7---7-(7)-7-|-5-7---7-(7)-7--|
|--------------------||------0---------|-----0---------|-----0----------|


                        ~~~~~~          ~~~~~~          ~~~~~~
  E E E   E Q     E E E E +E  E   E E E E +E  E   E E E E +E  E   E E E E Q
|---------------|---------------|---------------|---------------|-------------||
|---------------|---------------|---------------|---------------|------------o||
|---------------|---------------|---------------|---------------|-------------||
|-------/10-9\--|---------------|---------------|---------------|-------------||
|-8-7-----------|-5-7---7-(7)-7-|-8-7---7-(7)-7-|-5-7---7-(7)-7-|-8-7--------o||
|-----0---------|-----0---------|-----0---------|-----0---------|-----0-8-7---||


    N.C.(B5)
    H.        +H.       3x +H.        +H.
||----------|-----------||----------|--------||
||o---------|----------o||----------|--------||
||----------|-----------||----------|--------||
||----------|-----------||----------|--------||
||o---------|----------o||----------|--------||
||--0-------|-(0)-------||-(0)------|-(0)----||


 Verse
  N.C.(B5)
  E E E E E E   Q  E E E E   E E E E E E   Q  E E E E
|-------------|------------|-------------|------------|
|-------------|------------|-------------|------------|
|-------------|------------|-------------|------------|
|-------------|------------|-------------|------------|
|-------------|------------|-------------|------------|
|-0-0---0---0-|------x---0-|-0-0---0---0-|------x---x-|


  E E E E E E   H    E E   E E E E E E   Q  E E E E
|-------------|----------|-------------|------------|
|-------------|----------|-------------|------------|
|-------------|----------|-------------|------------|
|-------------|----------|-------------|------------|
|-------------|----------|-------------|------------|
|-0-0---0---0-|--------0-|-0-0---0---0-|------x---x-|


  E E E E E E   Q  E E E E   E E E E E E   Q  E E E E
|-------------|------------|-------------|------------|
|-------------|------------|-------------|------------|
|-------------|------------|-------------|------------|
|-------------|------------|-------------|------------|
|-------------|------------|-------------|------------|
|-0-0---0---0-|------x---x-|-0-0---0---0-|------0---0-|


  E E E E E E   Q  E E E E   E E E E E E   Q  E E Q
|-------------|------------|-------------|-----------||
|-------------|------------|-------------|-----------||
|-------------|------------|-------------|-----------||
|-------------|------------|-------------|-----------||
|-------------|------------|-------------|-----------||
|-0-0---0---0-|------x---0-|-0-0---0---0-|------x----||


    E E E E +E  E   E E E E +E  E   E E E E +E  E   E E E E Q
||----------------|---------------|---------------|--------------||
||o-------4-(4)---|-5-4---4-(4)-4-|-------4-(4)---|-5-4---------o||
||----------------|---------------|---------------|-------5-4\---||
||--0h2-2-------2-|-----2---------|-0h2-2-------2-|-----2--------||
||o---------------|---------------|---------------|-------------o||
||----------------|---------------|---------------|--------------||


    N.C.(B5)
          ~~~~~~          ~~~~~~          ~~~~~~
    E E E E +E  E   E E E E +E  E   E E E E +E  E   E E E   E Q
||----------------|---------------|---------------|---------------|
||o---------------|---------------|---------------|---------------|
||----------------|---------------|---------------|---------------|
||----------------|---------------|---------------|-------/10-9\--|
||o-5-7---7-(7)-7-|-8-7---7-(7)-7-|-5-7---7-(7)-7-|-8-7-----------|
||------0---------|-----0---------|-----0---------|-----0---------|


        ~~~~~~          ~~~~~~          ~~~~~~
  E E E E +E  E   E E E E +E  E   E E E E +E  E   E E E E Q
|---------------|---------------|---------------|-------------||
|---------------|---------------|---------------|------------o||
|---------------|---------------|---------------|-------------||
|---------------|---------------|---------------|-------------||
|-5-7---7-(7)-7-|-8-7---7-(7)-7-|-5-7---7-(7)-7-|-8-7--------o||
|-----0---------|-----0---------|-----0---------|-----0-8-7---||


 Pre-Chorus
  N.C.(B5)
  E E E E +E  E   Q  E E Q    E E E E +E  E   Q  E E Q
|---------------|-----------|---------------|-----------|
|---------------|-----------|---------------|-----------|
|---------------|-----------|---------------|-----------|
|---------------|-----------|---------------|-----------|
|-5h7-7-7-(7)-7-|-7------7--|-5h7-7-7-(7)-7-|-7------7--|
|---------------|----0-0----|---------------|----0-0----|


  E5                               G              B5/A
  E E E E +E  E    E E E E +E  E   Q.   E +E  E   E E A E E Q
|---------------|----------------|--------------|--------------|
|---------------|----------------|--------------|--------------|
|---------------|----------------|--------------|-----5h7------|
|---------------|-/7-7-7-7-(7)-7-|--------------|-0-0-----0-0--|
|-0-0-0-0-(0)-0-|----------------|-3----3-(3)-3-|--------------|
|---------------|----------------|--------------|--------------|


  N.C.(B5)                                    G
  E E E E +E  E   Q  E E Q    E E E E +E  E   Q  Q  Q
|---------------|-----------|---------------|----------|
|---------------|-----------|---------------|----------|
|---------------|-----------|---------------|----------|
|---------------|-----------|---------------|----------|
|-5h7-7-7-(7)-7-|-7------7--|-5h7-7-7-(7)-7-|-3--3--3--|
|---------------|----0-0----|---------------|----------|


  B5/F#                      E5             N.C.
  Q.   E +E  E   Q  E E Q    Q.   E +E  E   Q  Q  Q
|--------------|-----------|--------------|----------||
|--------------|-----------|--------------|----------||
|--------------|-----------|--------------|----------||
|--------------|-----------|--------------|----------||
|-2----2-(2)-2-|-2--2-2-2--|-0----0-(0)-0-|----------||
|--------------|-----------|--------------|-3--3--3--||


 Chorus
  N.C.(B5)
  E E E E +E  E   Q  E E Q    E E E E +E  E   Q  E E Q
|---------------|-----------|---------------|-----------|
|---------------|-----------|---------------|-----------|
|---------------|-----------|---------------|-----------|
|---------------|-----------|---------------|-----------|
|-5h7-7-7-(7)-7-|-7------7--|-5h7-7-7-(7)-7-|-7------7--|
|---------------|----0-0----|---------------|----0-0----|


  E5                              G             B5/A
  E E E E +E  E   E E E E +Q      E E E E E E   E E E E E E
|---------------|---------------|-------------|-------------|
|---------------|---------------|-------------|-------------|
|---------------|---------------|-------------|-----7-5-4---|
|---------------|-5h7-7-7-(7)\--|-------------|-0-0-------5-|
|-0-0-0-0-(0)-0-|---------------|-3-3-3-3-3-3-|-------------|
|---------------|---------------|-------------|-------------|


  N.C.(B5)                                    G
  E E E E +E  E   Q  E E Q    E E E E +E  E   Q  Q  Q
|---------------|-----------|---------------|----------|
|---------------|-----------|---------------|----------|
|---------------|-----------|---------------|----------|
|---------------|-----------|---------------|----------|
|-5h7-7-7-(7)-7-|-7------7--|-5h7-7-7-(7)-7-|-3--3--3--|
|---------------|----0-0----|---------------|----------|


  B5/F#                      E5             N.C.
  Q.   E +E  E   Q  E E Q    Q.   E +E  E   Q  Q  Q
|--------------|-----------|--------------|----------||
|--------------|-----------|--------------|----------||
|--------------|-----------|--------------|----------||
|--------------|-----------|--------------|----------||
|-2----2-(2)-2-|-2--2-2-2--|-0----0-(0)-0-|----------||
|--------------|-----------|--------------|-3--3--3--||


                                           Verse
  N.C.                                      N.C.(B5)
 4/4
   |-----6------|  |----6-----|
   S  S S  S  S S  S S S  S S S S E. Q      S S S S E S S +S  S E Q
|---------------------------------------||---------------------------|
|-12-11-9---------11-9-7----------------||o--------------------------|
|---------12-11-9--------11-9-7---------||---------------------------|
|---------------------------------------||---------------------------|
|-------------------------------3-2-----||o--------------------------|
|---------------------------------------||--0-0-0-0-0-0-0-(0)-0-0----|


                        N.C. N.C.(B5)
  S S S S E S S +S  S E Q    S S S S E S S +S  S E Q
|--------------------------|---------------------------|
|-----------------------5--|---------------------------|
|-----------------------4--|---------------------------|
|-----------------------3--|---------------------------|
|--------------------------|---------------------------|
|-0-0-0-0-0-0-0-(0)-0-0----|-0-0-0-0-0-0-0-(0)-0-0-----|


 7/8
  S S S S E S S S S S S S S
|---------------------------|
|---------------------------|
|---------------------------|
|---------------------------|
|---------------------------|
|-0-0-0-0-0-0-0-3-2-0-3-2-0-|


                                                   N.C.
 4/4
  S S S S E S S +S  S E Q    S S S S E S S +S  S E Q
|--------------------------|----------------------------|
|--------------------------|-----------------------5----|
|--------------------------|-----------------------4----|
|--------------------------|-----------------------3----|
|--------------------------|----------------------------|
|-0-0-0-0-0-0-0-(0)-0-0----|-0-0-0-0-0-0-0-(0)-0-0------|


                             1.
  N.C.(B5)                                 N.C.
                                           |-3-|
  S S S S E S S +S  S E Q    S S S S E S S q q q
|--------------------------|----------------------||
|--------------------------|---------------------o||
|--------------------------|----------------------||
|--------------------------|----------------------||
|--------------------------|---------------------o||
|-0-0-0-0-0-0-0-(0)-0-0----|-0-0-0-0-0-0-0-1-2-3--||


  2.
                N.C.
 5/4
                |-3-| |-3-|
  S S S S E S S q q q E E E
|---------------------------||
|---------------------------||
|---------------------------||
|---------------------------||
|---------------------------||
|-0-0-0-0-0-0-0-1-2-3-1-0-0-||


 Bridge
  B5C#5       D5C#5               B5C#5       D5C#5          B5
 4/4
  E E E E E E E E   E E Q  H      E E E E E E E E   E E Q  E E +Q
|-----------------|-------------|-----------------|-----------------|
|-----------------|-------------|-----------------|-----------------|
|-----------------|-------------|-----------------|-----------------|
|-----------------|-------------|-----------------|-----------------|
|-----------------|-------------|-----------------|-----------------|
|-0-2---2---2-3-2-|---2---------|-0-2---2---2-3-2-|---2----2-0-(0)--|


  B5C#5       D5C#5               B5C#5       D5C#5
  E E E E E E E E   E E Q  H      E E E E E E E E   E E E E  H
|-----------------|-------------|-----------------|----------------||
|-----------------|-------------|-----------------|----------------||
|-----------------|-------------|-----------------|----------------||
|-----------------|-------------|-----------------|----------------||
|-----------------|-------------|-----------------|---------/7\----||
|-0-2---2---2-3-2-|---2---------|-0-2---2---2-3-2-|---2---x--------||


 Pre-Verse
  N.C.(B5)
 3/4
        ~~~~~~          ~~~~~~          ~~~~~~
  E E E E +E  E   E E E E +E  E   E E E E +E  E   E E E   E Q
|---------------|---------------|---------------|---------------|
|---------------|---------------|---------------|---------------|
|---------------|---------------|---------------|---------------|
|---------------|---------------|---------------|-------/10-9\--|
|-5-7---7-(7)-7-|-8-7---7-(7)-7-|-5-7---7-(7)-7-|-8-7-----------|
|-----0---------|-----0---------|-----0---------|-----0---------|


        ~~~~~~          ~~~~~~          ~~~~~~
  E E E E +E  E   E E E E +E  E   E E E E +E  E   E E E E Q
|---------------|---------------|---------------|------------||
|---------------|---------------|---------------|------------||
|---------------|---------------|---------------|------------||
|---------------|---------------|---------------|------------||
|-5-7---7-(7)-7-|-8-7---7-(7)-7-|-5-7---7-(7)-7-|-8-7--------||
|-----0---------|-----0---------|-----0---------|-----0-8-7--||


 Verse
  N.C.(C#5)
 4/4
  S S S S E S S +S  S E Q
|--------------------------|
|--------------------------|
|--------------------------|
|--------------------------|
|--------------------------|
|-2-2-2-2-2-2-2-(2)-2-2----|


                        N.C. N.C.(C#5)
  S S S S E S S +S  S E Q    S S S S E S S +S  S E Q
|--------------------------|---------------------------|
|-----------------------7--|---------------------------|
|-----------------------6--|---------------------------|
|-----------------------5--|---------------------------|
|--------------------------|---------------------------|
|-2-2-2-2-2-2-2-(2)-2-2----|-2-2-2-2-2-2-2-(2)-2-2-----|


 7/8
  S S S S E S S S S S S S S
|---------------------------|
|---------------------------|
|---------------------------|
|---------------------------|
|---------------------------|
|-2-2-2-2-2-2-2-5-4-2-5-4-2-|


                                                   N.C.
 4/4
  S S S S E S S +S  S E Q    S S S S E S S +S  S E Q
|--------------------------|---------------------------|
|--------------------------|-----------------------7---|
|--------------------------|-----------------------6---|
|--------------------------|-----------------------5---|
|--------------------------|---------------------------|
|-2-2-2-2-2-2-2-(2)-2-2----|-2-2-2-2-2-2-2-(2)-2-2-----|


  N.C.(C#5)                                N.C.
                            5/4
                                           |-3-| |-3-|
  S S S S E S S +S  S E Q    S S S S E S S q q q E E E
|--------------------------|---------------------------||
|--------------------------|---------------------------||
|--------------------------|---------------------------||
|--------------------------|---------------------------||
|--------------------------|---------------------------||
|-2-2-2-2-2-2-2-(2)-2-2----|-2-2-2-2-2-2-2-3-4-5-2-3-3-||


   Bridge
    C#D#5       E5D#5               C#D#5       E5D#5
   4/4
    E E E E E E E E   E E Q  H      E E E E E E E E
||------------------|-------------|-----------------|
||o-----------------|-------------|-----------------|
||------------------|-------------|-----------------|
||------------------|-------------|-----------------|
||o-----------------|-------------|-----------------|
||--2-4---4---4-5-4-|---4---------|-2-4---4---4-5-4-|


  1.                  2.
        N.C.                N.C.
  E E E E E E E E     E E E E E E E E
|------------------||-------------------||
|-----------------o||-------------------||
|------------------||-------------------||
|---------4-6------||---------4---------||
|-------------7-6-o||-------------7-6---||
|---4---x----------||---4---x---4-------||


  N.C.(B5)
 3/4
        ~~~~~~          ~~~~~~          ~~~~~~
  E E E E +E  E   E E E E +E  E   E E E E +E  E   E E E   E Q
|---------------|---------------|---------------|---------------|
|---------------|---------------|---------------|---------------|
|---------------|---------------|---------------|---------------|
|---------------|---------------|---------------|-------/10-9\--|
|-5-7---7-(7)-7-|-8-7---7-(7)-7-|-5-7---7-(7)-7-|-8-7-----------|
|-----0---------|-----0---------|-----0---------|-----0---------|


        ~~~~~~          ~~~~~~          ~~~~~~
  E E E E +E  E   E E E E +E  E   E E E E +E  E   E E E E Q
|---------------|---------------|---------------|------------||
|---------------|---------------|---------------|------------||
|---------------|---------------|---------------|------------||
|---------------|---------------|---------------|------------||
|-5-7---7-(7)-7-|-8-7---7-(7)-7-|-5-7---7-(7)-7-|-8-7--------||
|-----0---------|-----0---------|-----0---------|-----0-8-7--||


 Pre-Chorus
  N.C.(B5)
  E E E E +E  E   Q  E E Q    E E E E +E  E   Q  E E Q
|---------------|-----------|---------------|-----------|
|---------------|-----------|---------------|-----------|
|---------------|-----------|---------------|-----------|
|---------------|-----------|---------------|-----------|
|-5h7-7-7-(7)-7-|-7------7--|-5h7-7-7-(7)-7-|-7------7--|
|---------------|----0-0----|---------------|----0-0----|


  E5                              G              A5
  E E E E +E  E   E E E E +E  E   Q.   E +E  E   E E E E E E
|---------------|---------------|--------------|-------------|
|---------------|---------------|--------------|-------------|
|---------------|---------------|--------------|-----7---5h7-|
|-------7-(7)-7-|-5h7-7-7-(7)-7-|--------------|-------------|
|-0-0-0---------|---------------|-3----3-(3)-3-|-5-5---5-----|
|---------------|---------------|--------------|-------------|


  N.C.(B5)                                    G
  E E E E +E  E   Q  E E Q    E E E E +E  E   Q  Q  Q
|---------------|-----------|---------------|----------|
|---------------|-----------|---------------|----------|
|---------------|-----------|---------------|----------|
|---------------|-----------|---------------|----------|
|-5h7-7-7-(7)-7-|-7------7--|-5h7-7-7-(7)-7-|-3--3--3--|
|---------------|----0-0----|---------------|----------|


  B5/F#                      E5             N.C.
  Q.   E +E  E   Q  E E Q    Q.   E +E  E   Q  Q  Q
|--------------|-----------|--------------|----------||
|--------------|-----------|--------------|----------||
|--------------|-----------|--------------|----------||
|--------------|-----------|--------------|----------||
|-2----2-(2)-2-|-2--2-2-2--|-0----0-(0)-0-|----------||
|--------------|-----------|--------------|-3--3--3--||


 Chorus
  N.C.(B5)
  E E E E +E  E   Q  E E Q    E E E E +E  E   Q  E E Q
|---------------|-----------|---------------|-----------|
|---------------|-----------|---------------|-----------|
|---------------|-----------|---------------|-----------|
|---------------|-----------|---------------|-----------|
|-5h7-7-7-(7)-7-|-7------7--|-5h7-7-7-(7)-7-|-7------7--|
|---------------|----0-0----|---------------|----0-0----|


  E5                            G              B5/A
  E E E E +E  E   E E E E E E   Q.   E +E  E   E E E E E E
|---------------|-------------|--------------|-------------|
|---------------|-------------|--------------|-------------|
|---------------|-------------|--------------|-----7---5h7-|
|-------7-(7)-7-|-5h7-7-7-7-7-|--------------|-------------|
|-0-0-0---------|-------------|-3----3-(3)-3-|-5-5---5-----|
|---------------|-------------|--------------|-------------|


  N.C.(B5)                                    G
  E E E E +E  E   Q  E E Q    E E E E +E  E   Q  Q  Q
|---------------|-----------|---------------|----------|
|---------------|-----------|---------------|----------|
|---------------|-----------|---------------|----------|
|---------------|-----------|---------------|----------|
|-5h7-7-7-(7)-7-|-7------7--|-5h7-7-7-(7)-7-|-3--3--3--|
|---------------|----0-0----|---------------|----------|


  B5/F#                         E5             N.C.
  Q.   E +E  E   Q.   E +E  E   Q.   E +E  E   Q  Q  Q
|--------------|--------------|--------------|----------||
|--------------|--------------|--------------|----------||
|--------------|--------------|--------------|----------||
|--------------|--------------|--------------|----------||
|-2----2-(2)-2-|-2----2-(2)-2-|-0----0-(0)-0-|----------||
|--------------|--------------|--------------|-3--1--0--||

[ Tab from: http://www.guitartabs.cc/tabs/d/dream_theater/this_dying_soul_btab.html ]
 Interlude
  E5                C#5               C5                   N.C.
 5/4                                 6/4                  4/4
  Q.   Q  E Q  Q    Q.   Q  E Q  Q    Q.   Q  E Q  Q  Q    Q.   Q.   E E
|-----------------|-----------------|--------------------|-----------------|
|-----------------|-----------------|--------------------|-----------------|
|-----------------|-----------------|--------------------|-----------------|
|-----------------|-4----4--4-4--4--|-3----3--3-3--3--3--|-----------2-2---|
|-0----0--0-0--0--|-----------------|--------------------|-2----3----------|
|-----------------|-----------------|--------------------|-----------------|


  E5                N.C.
 5/4
  Q.   Q  E Q  Q    Q.   Q  E Q  Q
|-----------------|-----------------|
|-----------------|-----------------|
|-----------------|-----------------|
|-----------------|-4----4--4-4--4--|
|-0----0--0-0--0--|-----------------|
|-----------------|-----------------|


  C5                   N.C.
 6/4
                       ~~~~~~~~
                                    |-3-|
  Q.   Q  E Q  Q  Q    Q.   Q.   Q  Q Q Q
|--------------------|---------------------||
|--------------------|---------------------||
|--------------------|---------------------||
|-3----3--3-3--3--3--|---------------------||
|--------------------|-5----3----2--3-2-3--||
|--------------------|---------------------||


   Bridge
    E5                C#5               C5                   N.C.
   5/4                                 6/4                  4/4
    Q.   Q  E Q  Q    Q.   Q  E Q  Q    Q.   Q  E Q  Q  Q    Q.   Q.   E E
||------------------|-----------------|--------------------|----------------|
||o-----------------|-----------------|--------------------|----------------|
||------------------|-----------------|--------------------|----------------|
||------------------|-4----4--4-4--4--|-3----3--3-3--3--3--|-----------2-2--|
||o-0----0--0-0--0--|-----------------|--------------------|-2----3---------|
||------------------|-----------------|--------------------|----------------|


                                                           1.
  E5                N.C.              C5                   N.C.
 5/4                                 6/4                  4/4
                                                           ~~~~~~~~
  Q.   Q  E Q  Q    Q.   Q  E Q  Q    Q.   Q  E Q  Q  Q    Q.   Q.   Q
|-----------------|-----------------|--------------------|-----------------||
|-----------------|-----------------|--------------------|----------------o||
|-----------------|-----------------|--------------------|-----------------||
|-----------------|-4----4--4-4--4--|-3----3--3-3--3--3--|-----------------||
|-0----0--0-0--0--|-----------------|--------------------|-5----3----2----o||
|-----------------|-----------------|--------------------|-----------------||


  2.
  N.C.
  ~~~~~~~~                  ~~~~~
  Q.   Q.   Q    +E  E +Q   Q  Q
|--------------|------------------|
|--------------|------------------|
|--------------|------------------|
|--------------|------------------|
|-5----3----2--|-(2)-0-(0)--------|
|--------------|------------3--1--|


    Q=96
    N.C.(B5)
   6/4
    S S S S E. S S S S S S S S S E. S S S S S
||----------------------------------------------||
||o--------------------------------------------o||
||----------------------------------------------||
||----------------------------------------------||
||o--------------------------------------------o||
||--1p0-0-0----1p0-0-0---1p0-0-0----1p0-0-0-----||


    Q.=128
   12/8
    E E E E Q  E E E E E E   E E E E Q  E E E E E E
||-------------------------|-------------------------||
||o------------------------|------------------------o||
||-------------------------|-------------------------||
||-------------------------|-------------------------||
||o------------------------|------------------------o||
||--1p0-0-0------1p0-0-0---|-1p0-0-0------1p0-0-0----||


    Q=96
    N.C.
   4/4
    S S S S S S S S S S S S S S S S  3x S S S S S S S S S S S S S S S S
||-----------------------------------||----------------------------------|
||o---------------------------------o||----------------------------------|
||-----------------------------------||----------------------------------|
||-----------------------------------||-----------------4----------------|
||o-----4-2---5-2---4-2-------------o||-----4-2---5-2-----4-5-2-4--------|
||--0-2-----3-----3-----3-2-0-2-3-2--||-0-2-----3-----3-----------2-0-3--|


  Q.=128
  N.C.(B5)
 6/4
  E E E E Q  E E E E E E   E E E E Q  E E E E E E
|------------------------|------------------------|
|------------------------|------------------------|
|------------------------|------------------------|
|------------------------|------------------------|
|------------------------|------------------------|
|-1p0-0-0------1p0-0-0---|-1p0-0-0------1p0-0-0---|


  Q=96
  N.C.
 4/4
  S S S S S S S S S S S S S S S S   S S S S S S S S S S S S S S S S
|---------------------------------|---------------------------------|
|---------------------------------|---------------------------------|
|---------------------------------|---------------------------------|
|---------------------------------|-----------------4---------------|
|-----4-2---5-2---4-2-------------|-----4-2---5-2-----4-5-2-4-------|
|-0-2-----3-----3-----3-2-0-2-3-2-|-0-2-----3-----3-----------2-0-3-|


  S S S S S S S S S S S S S S S S   S S S S S S S S S S S S S S S S
|---------------------------------|---------------------------------|
|---------------------------------|---------------------------------|
|---------------------------------|---------------------------------|
|-----4-2---5-2---4-2-------------|-----4-2---5-2---4-2-------------|
|-0-2-----3-----3-----3-2-0-2-3-2-|-0-2-----3-----3-----3-2-0-2-3-2-|
|---------------------------------|---------------------------------|


  S S S S S S S S S S S S S S S S   S S S S S S S S S S S S S S S S
|---------------------------------|---------------------------------||
|---------------------------------|---------------------------------||
|---------------------------------|-----------------4---------------||
|-----4-2---5-2---4-2-------------|-----4-2---5-2-----4-5-2-4-----2-||
|-0-2-----3-----3-----3-2-0-2-3-2-|-0-2-----3-----3-----------2-0---||
|---------------------------------|---------------------------------||


   Verse
    Q=192
    N.C.(E5)
    E E E E E S S E E   E E E E E E E S S
||--------------------|-------------------|
||o-------------------|-------------------|
||--------------------|-------------------|
||--------------------|-------------------|
||o-3-0-0-0-0-6-6-0-0-|-0-0-3-0-0-0-0-8-7-|
||--------------------|-------------------|


                       6/4
  E S S E E E E S S E   E E E S S E E E E S S E S S E
|---------------------|--------------------------------|
|---------------------|--------------------------------|
|---------------------|--------------------------------|
|---------------------|--------------------------------|
|-0-3-2-0-0-0-0-8-7-0-|-0-0-0-3-2-0-0-0-0-5-5-0-3-3-0--|
|---------------------|--------------------------------|


 4/4
  E E E E E S S E E   E E E E E E E E
|-------------------|-----------------|
|-------------------|-----------------|
|-------------------|-----------------|
|-------------------|-----------------|
|-3-0-0-0-0-6-6-0-0-|-0-0-3-0-0-0-0-0-|
|-------------------|-----------------|


                     6/4
  E S S E E E E E E   E E E S S E E E E S S E S S E
|-------------------|----------------------------------|
|-------------------|----------------------------------|
|-------------------|----------------------------------|
|-------------------|----------------------------------|
|-0-3-2-0-0-5-0-7-0-|-0-0-0-3-2-0-0-0-0-5-5-0-3-3-0----|
|-------------------|----------------------------------|


  N.C.
 4/4
  E E E E +E  E E E   +E  E E E E E E E
|-------------------|--------------------||
|-------------------|-------------------o||
|-------------------|--------------------||
|-4-2---5-(5)-2---4-|-(4)-2--------------||
|-----3---------3---|-------3-2-0-2-3-2-o||
|-------------------|--------------------||


  E E E E +E  E E E   +E  E E E E E E E
|-------------------|-------------------||
|-------------------|-------------------||
|-------------------|-------------------||
|-4-2---5-(5)-2---4-|-(4)-2-------------||
|-----3---------3---|-------3-2-0-2-3-2-||
|-------------------|-------------------||


   Chorus
    N.C.(B5)
    E E E E E E E E   E E E E E E E E   E E E E E E E E   E E E E E E E E
||------------------|-----------------|-----------------|------------------||
||o-----------------|-----------------|-----------------|-----------------o||
||------------------|-----------------|-----------------|------------------||
||------------------|-----------------|-----------------|------------------||
||o-5-7---7-5-7-7s8-|---8-2-3-3-5-5s8-|-5-7---7-5-7-7s8-|---8-2-3-3-5-3s2-o||
||------------------|-----------------|-----------------|------------------||


   Interlude
    Q=96
    N.C.
    S S S S S S S S S S S S S S S S  3x S S S S S S S S S S S S S S S S
||-----------------------------------||---------------------------------||
||o---------------------------------o||---------------------------------||
||-----------------------------------||-----------------4---------------||
||------4-2---5-2---4-2--------------||-----4-2---5-2-----4-5-2-4-----2-||
||o-0-2-----3-----3-----3-2-0-2-3-2-o||-0-2-----3-----3-----------2-0---||
||-----------------------------------||---------------------------------||


   Verse
    Q=192
    N.C.(E5)
                         9/8
    S S E E E E S S E E   E E S S E E E E E E
||----------------------|---------------------|
||o---------------------|---------------------|
||----------------------|---------------------|
||----------------------|---------------------|
||o-3-2-0-7-0-0-8-7-0-0-|-0-0-3-2-0-0-0-0-8-0-|
||----------------------|---------------------|


 4/4                 11/8
  S S E E E E E E E   E E S S E E E E S S E S S E
|-------------------|-------------------------------|
|-------------------|-------------------------------|
|-------------------|-------------------------------|
|-------------------|-------------------------------|
|-3-2-0-0-5-0-8-0-0-|-0-0-3-2-0-0-0-0-8-7-0-3-2-0---|
|-------------------|-------------------------------|


 4/4                   9/8
  S S E E E E S S E E   E E S S E E E E E E
|---------------------|---------------------|
|---------------------|---------------------|
|---------------------|---------------------|
|---------------------|---------------------|
|-3-2-0-7-0-0-8-7-0-0-|-0-0-3-2-0-0-0-0-8-0-|
|---------------------|---------------------|


 4/4                 11/8
  S S E E E E E E E   E E S S E E E E S S E S S E
|-------------------|------------------------------|
|-------------------|------------------------------|
|-------------------|------------------------------|
|-------------------|------------------------------|
|-3-2-0-0-5-0-8-0-0-|-0-0-3-2-0-0-0-0-8-7-0-3-2-0--|
|-------------------|------------------------------|


  N.C.
 4/4
  E E E E +E  E E E   +E  E E E E E E E
|-------------------|--------------------||
|-------------------|-------------------o||
|-------------------|--------------------||
|-4-2---5-(5)-2---4-|-(4)-2--------------||
|-----3---------3---|-------3-2-0-2-3-2-o||
|-------------------|--------------------||


  E E E E +E  E E E   +E  E E E E E E E
|-------------------|-------------------||
|-------------------|-------------------||
|-------------------|-------------------||
|-4-2---5-(5)-2---4-|-(4)-2-------------||
|-----3---------3---|-------3-2-0-2-3-2-||
|-------------------|-------------------||


   Chorus
    N.C.(B5)
    E E E E E E E E   E E E E E E E E   E E E E E E E E   E E E E E E E E
||------------------|-----------------|-----------------|------------------||
||o-----------------|-----------------|-----------------|-----------------o||
||------------------|-----------------|-----------------|------------------||
||------------------|-----------------|-----------------|------------------||
||o-5-7---7-5-7-7s8-|---8-2-3-3-5-5s8-|-5-7---7-5-7-7s8-|---8-2-3-3-5-3s2-o||
||------------------|-----------------|-----------------|------------------||


 Interlude
  Q=96
  N.C.
                                                            |-3-| |-3-|
  S S S S S S S S S S S S S S S S   S S S S S S S S S S S S S S S S S S
|---------------------------------|--------------------------------------|
|---------------------------------|--------------------------------------|
|---------------------------------|--------------------------------------|
|---------------------------------|--------------------------------------|
|-----4-2---5-2---4-2-------------|-----4-2---5-2---4-2------------------|
|-0-2-----3-----3-----3-2-0-2-3-2-|-0-2-----3-----3-----3-2-0-0-2-3-2-0--|


  S S S S S S S S S S S S S S S S   S S S S S S S S S S S S S S S S
|---------------------------------|---------------------------------||
|---------------------------------|---------------------------------||
|---------------------------------|---------------------------------||
|---------------------------------|-----------------4---------------||
|-----4-2---5-2---4-2-------------|-----4-2---5-2-----4-5-2-4-------||
|-0-2-----3-----3-----3-2-0-2-3-2-|-0-2-----3-----2-----------2-0-3-||


    Q=132
    N.C.(F#5)                           Bb5
   11/8
    S S S S S S S S S S S S S S S S S S S S S S
||----------------------------------------------|
||o---------------------------------------------|
||----------------------------------------------|
||----------------------------------------------|
||o-0-2---2---2-3-2---2---2-0-2---2---2-6---6---|
||----------------------------------------------|


  N.C.(F#5)                           C5
  S S S S S S S S S S S S S S S S S S S S S S
|-----------------------------------------------|
|-----------------------------------------------|
|-----------------------------------------------|
|-----------------------------------------------|
|-0-2---2---2-3-2---2---2-0-2---2---2-8---8-----|
|-----------------------------------------------|


  Q=272
  N.C.
 4/4
  E E E E E E E E   E E E E E E E E   E E E E E E E E
|-----------------|-----------------|------------------||
|-----------------|-----------------|-----------------o||
|-7-6-4-7-6-4-7-6-|-4-7-6-4-7-6-4-7-|-6-4-7-6-4-7-6-4--||
|-----------------|-----------------|------------------||
|-----------------|-----------------|-----------------o||
|-----------------|-----------------|------------------||


  E E E E E E E E   E E E E E E E E   E E E E E E E E
|-----------------|-----------------|--------------------|
|-----------------|-----------------|--------------------|
|-7-6-4-7-6-4-7-6-|-4-7-6-4-7-6-4-7-|-6-4-7-6-4-7-6-4----|
|-----------------|-----------------|--------------------|
|-----------------|-----------------|--------------------|
|-----------------|-----------------|--------------------|


    Q=132
    N.C.(F#5)                           Bb5
   11/8
    S S S S S S S S S S S S S S S S S S S S S S
||----------------------------------------------|
||o---------------------------------------------|
||----------------------------------------------|
||----------------------------------------------|
||o-0-2---2---2-3-2---2---2-0-2---2---2-6---6---|
||----------------------------------------------|


  N.C.(F#5)                           C5
  S S S S S S S S S S S S S S S S S S S S S S
|-----------------------------------------------|
|-----------------------------------------------|
|-----------------------------------------------|
|-----------------------------------------------|
|-0-2---2---2-3-2---2---2-0-2---2---2-8---8-----|
|-----------------------------------------------|


  Q=272
  N.C.
 4/4
  E E E E E E E E   E E E E E E E E   E E E E E E E E
|-----------------|-----------------|------------------||
|-----------------|---------6-4-----|-6-4-----6-4-----o||
|-7-6-4-7-6-4-7-6-|-4-7-6-4-----5-4-|-----5-4-----5-4--||
|-----------------|-----------------|------------------||
|-----------------|-----------------|-----------------o||
|-----------------|-----------------|------------------||


  E E E E E E E E   E E E E E E E E   E E E E E E E E
|-----------------|-----------------|--------------------||
|-----------------|---------6-4-----|-6-4-----6-4--------||
|-7-6-4-7-6-4-7-6-|-4-7-6-4-----5-4-|-----5-4-----5-4----||
|-----------------|-----------------|--------------------||
|-----------------|-----------------|--------------------||
|-----------------|-----------------|--------------------||


  Q=132
  N.C.(F#5)                           Bb5
 11/8
  S S S S S S S S S S S S S S S S S S S S S S
|---------------------------------------------|
|---------------------------------------------|
|---------------------------------------------|
|---------------------------------------------|
|-0-2---2---2-3-2---2---2-0-2---2---2-6---6---|
|---------------------------------------------|


  N.C.(F#5)                           C5
  S S S S S S S S S S S S S S S S S S S S S S
|---------------------------------------------|
|---------------------------------------------|
|---------------------------------------------|
|---------------------------------------------|
|-0-2---2---2-3-2---2---2-0-2---2---2-8---8---|
|---------------------------------------------|


  N.C.(F#5)                                       Bb5
  S S +S  S +S  S S S +S  S +S  S S S +S  S +S  S E E
|-----------------------------------------------------|
|-----------------------------------------------------|
|-----------------------------------------------------|
|-----------------------------------------------------|
|-0-2-(2)-2-(2)-2-3-2-(2)-2-(2)-2-0-2-(2)-2-(2)-2-6-6-|
|-----------------------------------------------------|


  N.C.(F#5)                                       C5
  S S +S  S +S  S S S +S  S +S  S S S +S  S +S  S E E
|-----------------------------------------------------||
|-----------------------------------------------------||
|-----------------------------------------------------||
|-----------------------------------------------------||
|-0-2-(2)-2-(2)-2-3-2-(2)-2-(2)-2-0-2-(2)-2-(2)-2-8-8-||
|-----------------------------------------------------||


   Keyboard solo
    Q=172
    N.C.
   4/4
    |-3-| |-3-| |-3-| |-3-|   |-3-| |-3-| |-3-| |-3-|
    E E E E E E E E E E E E   E E E E E E E E E E E E
||--------------------------|-------------------------|
||o-------------------------|-------------------------|
||--------------------------|-------------------------|
||--------------------------|-------------------------|
||o-------------------------|-------------------------|
||--2-2-2-2-2-2-2-2-2-2-2-2-|-2-2-2-2-2-2-2-2-2-2-2-2-|


                                                    D5
                           5/4
  |-3-| |-3-| |-3-| |-3-|   |-3-| |-3-| |-3-| |-3-|
  E E E E E E E E E E E E   E E E E E E E E E E E E Q   4x
|-------------------------|-----------------------------||
|-------------------------|----------------------------o||
|-------------------------|-----------------------------||
|-------------------------|-----------------------------||
|-------------------------|----------------------------o||
|-2-2-2-2-2-2-2-2-2-2-2-2-|-2-2-2-2-2-2-2-2-2-2-2-2-3---||


  Q=148
  N.C.
 7/16
  S S S S S S S   S S S S S S S   S S S S S S S   S S S S S S S
|---------------|---------------|---------------|----------------||
|-6-4-----------|-6-4-----------|-6-4-----------|-6-4------------||
|-----6-4-------|-----6-4-------|-----6-4-------|-----6-4--------||
|---------7-5-4-|---------7-5-4-|---------7-5-4-|---------7-5-4--||
|---------------|---------------|---------------|----------------||
|---------------|---------------|---------------|----------------||


   Guitar Solo
    Q=134
    N.C.(Eb5)
   6/4
    E. S +E  S +E   E S E. S +E  Q  E
||------------------------------------|
||o-----------------------------------|
||------------------------------------|
||------------------------------------|
||o----------------/4---3-------------|
||--4--5-(5)-4-(4)---------4-(4)-2--5-|


 7/4
  E. S +E  S +E   E. E. S +E  Q  E  E E  4x
|----------------------------------------||
|---------------------------------------o||
|----------------------------------------||
|----------------------------------/7-6--||
|----------------/7--6------------------o||
|-4--5-(5)-4-(4)--------4-(4)-2--4-------||


  N.C.
 7/16
  S S S S S S S   S S S S S S S   S S S S S S S
|---------------|---------------|---------------|
|-8-6-----------|-8-6-----------|-8-6-----------|
|-----8-6-------|-----8-6-------|-----8-6-------|
|---------9-7-6-|---------9-7-6-|---------9-7-6-|
|---------------|---------------|---------------|
|---------------|---------------|---------------|


                 3/4
  S S S S S S S   S S S S S E. Q
|---------------|-------------------||
|-8-6-----------|-------------------||
|-----8-6-------|-----6-8-----------||
|---------9-7-6-|-7-9-----6---------||
|---------------|-------------------||
|---------------|-------------------||


 Guitar/Keyboard unison
  Q=192
  F#5
 4/4
  Q  E E E E E E   +E  E +E  E +E  E Q
|----------------|----------------------|
|--------2-------|----------------------|
|----2-4---4-2-4-|-(4)-5-(5)-2-(2)-2-4--|
|----------------|----------------------|
|-2--------------|----------------------|
|----------------|----------------------|


  Q  E E E E E E   +E  E +E  E +E  E Q
|----------------|----------------------|
|--------2-------|----------------------|
|----2-4---4-2-4-|-(4)-5-(5)-2-(2)-2-4--|
|----------------|----------------------|
|-2--------------|----------------------|
|----------------|----------------------|


  Q  E E E E E E   +E  E +E  E +E  E Q
|----------------|----------------------|
|--------2-------|----------------------|
|----2-4---4-2-4-|-(4)-5-(5)-2-(2)-2-4--|
|----------------|----------------------|
|-2--------------|----------------------|
|----------------|----------------------|


  Q  E E E E E E   +E  E +E  E +E  E Q
|----------------|----------------------|
|--------2-------|----------------------|
|----2-4---4-2-4-|-(4)-5-(5)-2-(2)-2-4--|
|----------------|----------------------|
|-2--------------|----------------------|
|----------------|----------------------|


  D5              C5              F#              E5
 7/8                                             6/4
  E E E E E E E   E E E E E E E   E E E E E E E   E E E E E E E E E E E E
|---------------|---------------|---------------|-------------------------|
|---------------|---------------|---------------|-------------------------|
|---------------|---------------|---------------|-------------------------|
|-5-5-5-5-5-5-5-|-3-3-3-3-3-3-3-|---------------|---------------------5---|
|---------------|---------------|-2-2-2-2-2-2-2-|-0-0-0-0-0-0-0-0-0-0---7-|
|---------------|---------------|---------------|-------------------------|


  E5              D5              C5              B5
 7/8                                             4/4
  E E E E E E E   E E E E E E E   E E E E E E E   E E E E E E E E
|---------------|---------------|---------------|-----------------|
|---------------|---------------|---------------|-----------------|
|---------------|---------------|---------------|-----------------|
|-7-7-7-7-7-7-0-|-5-5-5-5-5-5-0-|-3-3-3-3-3-3-0-|-2-2-2-2-2-2-2-2-|
|---------------|---------------|---------------|-----------------|
|---------------|---------------|---------------|-----------------|


  N.C.                               B5
  Q.   Q  E E E   Q  E E +E  E E E   Q  E E +Q   E E   Q  E E +Q   E E
|---------------|------------------|-----------------|-----------------|
|---------------|------------------|-----------------|-----------------|
|-------------4-|-5--5-7-(7)-7-9---|-----------------|-----------------|
|-3----5--5-7---|----------------9-|-----------------|-----------------|
|---------------|------------------|-7----7-(7)--7-5-|-7----7-(7)--7-5-|
|---------------|------------------|-----------------|-----------------|


  N.C.                               B5
  Q.   Q  E E E   Q  E E +E  E E E   Q  E E +Q   E E   Q  E E +Q   E E
|---------------|------------------|-----------------|-----------------|
|---------------|------------------|-----------------|-----------------|
|-------------4-|-5--5-7-(7)-7-9---|-----------------|-----------------|
|-3----5--5-7---|----------------9-|-----------------|-----------------|
|---------------|------------------|-7----7-(7)--7-5-|-7----7-(7)--7-5-|
|---------------|------------------|-----------------|-----------------|


  E5                                     N.C.
                  5/4                   4/4
  Q  E E E E E E   E E E E E E E E E E    E E E E E E E E   E E E E E E E E
|----------------|---------------------|------------------|------------------|
|----------------|---------------------|------------------|------------------|
|----------------|---------------------|------------------|------------------|
|----7-5-7-5-----|-7-5-7-5-----7-5-7-5-|-/9-9-9-5-5-5-7-7-|-3-3-3-5-5-5-2-2--|
|-0----------0-0-|---------0-0---------|------------------|------------------|
|----------------|---------------------|------------------|------------------|


                                                      5/4
  E E E E E E E E   E E E E E E E E   Q  E E E E E E   E E E E E E E E E E
|-----------------|-----------------|----------------|---------------------|
|-----------------|-----------------|----------------|---------------------|
|-----------------|-----------------|----------------|---------------------|
|-3-3-3-0-0-0-2-2-|-----------------|----7-5-7-5-----|-7-5-7-5-----7-5-7-5-|
|-----------------|-3-3-3-5-5-5-2-2-|-0----------0-0-|---------0-0---------|
|-----------------|-----------------|----------------|---------------------|


  B5              C5              B5              A5
 7/8
  E E E E E E E   E E E E E E E   E E E E E E E   E E E E E E E
|---------------|---------------|---------------|----------------|
|---------------|---------------|---------------|----------------|
|---------------|---------------|---------------|----------------|
|-2-2-2-2-2-2-2-|-3-3-3-3-3-3-3-|-2-2-2-2-2-2-2-|-0-0-0-0-0-0-0--|
|---------------|---------------|---------------|----------------|
|---------------|---------------|---------------|----------------|


  N.C.         N.C.(E5)
              4/4
  Q  Q  Q  E   Q  E E E E E E   E E E E E E E E
|------------|----------------|-----------------|
|------------|----------------|-----------------|
|------------|----------------|-----------------|
|-3--2-------|----7-5-7---5-7-|-7-7-7-5-7---5-7-|
|-------3--2-|-0--------0-----|-----------0-----|
|------------|----------------|-----------------|


  Q  E E E E E E   E E E E E E E E   Q  E E E E E E   E E E E E E E E
|----------------|-----------------|----------------|-----------------|
|----------------|-----------------|----------------|-----------------|
|----------------|-----------------|----------------|-----------------|
|----7-5-7---5-7-|-7-7-7-5-7---5-7-|----7-5-7---5-7-|-7-7-7-5-7---5-7-|
|-0--------0-----|-----------0-----|-0--------0-----|-----------0-----|
|----------------|-----------------|----------------|-----------------|


  Q=172
  B5
  S S S S E S S +S  S E Q    S S S S E S S +S  S E Q
|--------------------------|--------------------------*|
|--------------------------|--------------------------*|
|--------------------------|--------------------------*|
|--------------------------|--------------------------*|
|--------------------------|--------------------------*|
|-0-0-0-0-0-0-0-(0)-0-0----|-0-0-0-0-0-0-0-(0)-0-0----*|
Comments