Dream Theater - The Miracle And The Sleeper Chords & Tabs

 

The Miracle And The Sleeper Chords & Tabs

Dream Theater Chords & Tabs

Version: 2 Type: Bass Tab 0 ratings
1 star 2 stars 3 stars 4 stars 5 stars
comments

The Miracle And The Sleeper Bass Tab

   
Bass Tab for

METROPOLIS PART 1: "THE MIRACLE AND THE SLEEPER"
By: Dream Theater
Tabbed by Zack
z_ktulu666@hotmail.com for questions, comments, etc.

Bass rests for 17 measures

     h E E E    +E s s E s s E s s E s s   E s s q E E E  +E s E s E s E s s
G||-----------|--------------------------|---------------|-------------------|
D||4:-R-------|.-------R-----R-----R-----|-R-----R-------|-------------------|
A||4:---------|.-------------------------|-------------3-|---3-3-3-3-3-3-3-3-|
E||-----2-3-0-|----0-0---0-0---0-0---0-0-|---0-0---2-3---|-------------------|



+e s s q E E e   +w  +w    s s s s e s s s s s s s s e     s s s s e e e e s 
s s s              
|----------------|---|---|-------------------------------|---------------------------|
|-------R-------.|---|---|.-----------------------------.|.---------R---R-----------.|
|---3-3---------.|---|---|.-----------------------------.|.-------------------------.|
|---------2-3-0--|---|---|--0-0-0-0-0-0-0-0-0-0-0-0-0-0--|--0-0-0-0---0---0-0-0-0-0--|
                3                                       7                    
       13

  E E E E E E E  +E s E s E s E s s    +E s E E q+s q+s     E s E s E s E s 
s
|---------------|-------------------|-------------------|---------------------|
|-----R---------|-------------------|9:---------5---4---|4:-------------------|
|-------------2-|---2-2-2-2-2-2-2-2-|8:---2-2-2---------|4:-2-2-2-2-2-2-2-2-2-|
|-0-0---0-2-3---|-------------------|-------------------|---------------------|

   +e s E e q+s q+s     e s E s E s E s s    +e s E s s q+s q+s     w  +w  
+w  +w   w
|-------------------|---------------------|---------------------|-----|---|---|---|---|
|9:---------2-------|4:-------------------|9:-------------------|4:---|---|---|---|-R-|
|8:---2-2-2---------|4:-3-3-3-3-3-3-3-3-3-|8:---3-3-3-3---------|4:---|---|---|---|---|
|---------------3---|---------------------|-------------3---2---|---0-|---|---|---|---|

  q E E+h     q E h     w   q E E+h     q E h     w   q E E+h     q E h     
w   q E E+h
|---------|---------|-----|---------|---------|-----|---------|---------|-----|---------|
|---R-----|7:---R---|4:---|---R-----|7:---R---|4:---|---R-----|7:---R---|4:---|---R-----|
|---------|8:-------|4:---|---------|8:-------|4:---|---------|8:-------|4:---|---------|
|-0---3---|---0---3-|---2-|-0---3---|---0---3-|---2-|-0---3---|---0---3-|---2-|-0---3---|

  e e e e e e e e   w   w   q e E q E   q e q s s s s s s   q e q s s s s s 
s   h h
|-----------------|---|---|-----------|-------------------|-------------------|-----|
|-----------------|---|---|---R-------|---R---------------|---R---------------|-----|
|-----------------|---|---|-2---2-2-2-|-2---2-5-5-3-3-2-2-|-2---2-5-5-3-3-2-2-|-----|
|-0-0-0-0-0-0-0-0-|-3-|-0-|-----------|-------------------|-------------------|-2-5-|

  q e E q E   q e q s s s s s s   q e q s s s s s s   h h    s s s s e s s s 
s s s s s s s
|-----------|-------------------|-------------------|-----|---------------------------------|
|---R-------|---R---------------|---R---------------|-----|.-------------------------------.|
|-2---2-2-2-|-2---2-5-5-3-3-2-2-|-2---2-5-5-3-3-2-2-|-----|.-------------------7-------7---.|
|-----------|-------------------|-------------------|-2-5-|--0-0-0-0-0-0-0-0-0---0-0-0---0--|
                                                                             
               3
   s s s s e s s s e s q    s s s s e s s E E e   e s E s E s E s s    +e s 
E q+s q+s
|-------------------------|---------------------|-------------------|-----------------|
|.-----------------------.|---------------------|-------------------|9:-------5---4---|
|.-7-7-7-7-7-7-7-7-7-----.|-------------------2-|-2-2-2-2-2-2-2-2-2-|8:---2-2---------|
|--------------------0-0--|-0-0-0-0-0-0-0-2-3---|-------------------|-----------------|
                         8

    e s E s E s E s s    +e s E e q+s q+s     e s E s E s E s s    +e s E s 
s q+s q+s 
|---------------------|-------------------|---------------------|---------------------|
|4:-------------------|9:---------2-------|4:-------------------|9:-------------------|
|4:-2-2-2-2-2-2-2-2-2-|8:---2-2-2---------|4:-3-3-3-3-3-3-3-3-3-|8:---3-3-3-3---------|
|---------------------|---------------3---|---------------------|-------------3---2---|

     W     +W+e      q Q q Q     e e e e s s e     e e s s s s s s s s e     
E E E E s s E
|------|--------|------------|-------6---4-4---|-------4-4-----4-4-------|-------6---4-4---|
|12:---|13:-----|10:-5-R---R-|3:---4---4-----4-|7:---2-----2-2-----2-2---|3:---4---4-----4-|
|8:----|8:------|8:------4---|4:-2-------------|8:-0-------------------0-|4:-2-------------|
|----0-|--------|------------|-----------------|-------------------------|-----------------|

    E E E E E E E     E E E E s s E     E E s s s s s s s s E     E E E E s 
s E
|-----------4-----|-------6---4-4---|-------4-4-----4-4-------|-------6---4-4---|
|7:-----7-----2---|3:---4---4-----4-|7:---2-----2-2-----2-2---|3:---4---4-----4-|
|8:---5---5-------|4:-2-------------|8:-0-------------------0-|4:-2-------------|
|---3-----------3-|-----------------|-------------------------|-----------------|

    E E E E E E E     q q q     E E E E E E E     E E E E E E     E E E E E 
E E
|-----------4-----|---------|-----------------|---------------|-----------------|
|7:-----7-----2---|3:-------|7:---R---R---R---|3:-----R---R---|7:-R---R---R-----|
|8:---5---5-------|4:-2-2-2-|8:---------------|4:-2-2---2---2-|8:---------------|
|---3-----------3-|---------|---5---5---5---5-|---------------|-----5---5---5-5-|

    q q q     E E E E E E E     E E E E E E     E E E E E E E     h q    
+h+E     h q
|---------|-----------------|---------------|-----------------|-------|-------|-------|
|3:-------|7:---R---R---R---|3:-----R---R---|7:-R---R---R-----|4:-----|5:-----|4:-----|
|4:-2-2-2-|8:---------------|4:-2-2---2---2-|8:---------------|4:-2---|8:-----|4:-2---|
|---------|---5---5---5---5-|---------------|-----3---3---5-5-|-----5-|-------|-----3-|

   +h+E     h q    +h+E     h E    +h+E E   E E E E s s E   E E E E E E   E 
E E E E E
|-------|-------|-------|-------|---------|-----6---4-4---|-------------|-------------|
|5:-----|4:-----|5:-----|4:-----|3:-------|---4---4-----4-|-----9---9---|-----7-----7-|
|8:-----|4:-2---|8:-----|4:-2---|4:-------|-2-------------|---7---7---7-|---5-----5---|
|-------|-----5-|-------|-----3-|-------5-|---------------|-5-----------|-7-----3-----|

  E E E E E E     E E E E E E E E  +w  +h E E  +w  +h E E  +w  +h E E  +w    
+h E
|-------------|---------2-----5-4-|---|-----2-|---|-------|---|-------|---|-------|
|-----4-5-4---|4:-----6---5-------|---|---2---|---|---2---|---|---2-3-|---|7:---2-|
|---2-------2-|4:---3-------3-----|---|-------|---|-----5-|---|-------|---|8:-----|
|-0-----------|---2---------------|---|-------|---|-------|---|-------|---|-------|

    w  +H+e e   q q h   w   s s s s q h     w e     w  +H+e e   w   e e s e 
s E E E E
|-----|-------|-------|---|-------------|-------|-----|-------|---|-------------------|
|4:-4-|-----2-|-4-4-R-|-R-|-----------R-|9:-R---|4:---|-------|---|-----R-----R-------|
|4:---|-------|-------|---|-------------|8:-----|4:---|-------|---|-------------------|
|-----|-------|-------|---|-2-2-2-2-2---|-----0-|---2-|-----0-|-2-|-2-2---2-2---2-2-0-|

*
   S S s s  s  s s S S s s  s  s s     S S s  s  s  s  s S S s  s  s  s  s
|--------11--------------11---------|---------12----------------12----------|
|.---4------11---4---4------11---4-.|.---5-------12----5---5-------12----5-.|
|.-----9-------9-------9-------9---.|.-----10-------10-------10-------10---.|
|--2---------------2----------------|--3-----------------3------------------|

  S S s  s  s  s  s S S s  s  s  s  s   S S s  s  s  s  s S S s  s  s  s  s  
  w  +w
|--------14----------------14---------|--------16----------------16---------|---|---|
|---7-------14----7---7-------14----5-|---9-------16----9---9-------16----9-|---|---|
|-----12-------12-------12-------12---|-----14-------14-------14-------14---|---|---|
|-5-----------------5-----------------|-7-----------------7-----------------|-2-|---|

   s s s s s s s s s s s s s s s s      s s s s s s s s s s s s s s s s s s
|-----------------------------------|---------------------------------------|
|.---------------------------------.|9:-------------------------------------|
|.---------------------------------.|8:-------------------------------------|
|--2-2-2-2-2-2-2-2-2-2-2-2-2-2-2-2--|---2-2-2-2-2-2-2-2-2-2-2-2-2-2-2-2-2-2-|
                                  12
[ Tab from: http://www.guitartabs.cc/tabs/d/dream_theater/the_miracle_and_the_sleeper_btab_ver_2.html ]
    s s s s s s s s s s s s    s s s s s s s s s s s s    s s s h     w
|---------------------------|---------------------------|-----------|-----|
|3:-------------------------|.-------------------------.|.-------R-.|.-R-.|
|4:-------------------------|.-------------------------.|.---------.|.---.|
|---2-2-2-2-2-2-2-2-2-2-2-2-|--2-2-2-2-2-2-2-2-2-2-2-2--|--0-0-0----|-----|
                                                       2           3     3

   s s s s s s e e e      S S s S S s S S s S S s     e E+t E+t     S S s S 
S s S S s S S s
|--------4------------|---------------------------|-------------|---------------------------|
|.-----0---R-----3-5-.|4:-------------------------|2:---2---3---|4:-------------------------|
|.-2-2-------2-3-----.|4:-------------------------|4:-2---------|4:-------------------------|
|---------------------|---0-0-0-0-0-0-0-0-0-0-0-0-|-------------|---0-0-0-0-0-0-0-0-0-0-0-0-|
                    16

    e E+t E+t     S S s S S s S S s S S s     e E+t E+t     S S s S S s S S 
s S S s
|-------------|---------------------------|-------------|---------------------------|
|2:---2---3---|4:-------------------------|2:---2---3---|4:-------------------------|
|4:-2---------|4:-------------------------|4:-2---------|4:-------------------------|
|-------------|---0-0-0-0-0-0-0-0-0-0-0-0-|-------------|---0-0-0-0-0-0-0-0-0-0-0-0-|

    e E+t E+t     q q e s s e   q q e s s e     q     q q e s s e     s s s 
s s E q s E s E
|-------------|---------------|-------------|-----|-----------3---|---3-2---------8---------|
|2:---2---3---|7:-----------R-|---------4-R-|1:---|7:---4-2-2---R-|5:-----6-5-----------5-4-|
|4:-2---------|8:---------5---|-2-5-3-3-----|4:-5-|8:-6-----------|4:---------8-8---5-5-----|
|-------------|---3-6-4-4-----|-------------|-----|---------------|-------------------------|

    s s s s s s s s s s s s s s    s s s s s s s s s s s s s s      e e e e 
E E
|-------------------------------|-------------------------------|---------------|
|7:-------------------------R---|.-------------------------R---.|3:-------4-----|
|8:-------------4-4-3-3-2-1---1-|.-------------4-4-3-3-2-1---1-.|4:---------2-3-|
|---4-4-3-2-2-2-----------------|--4-4-3-2-2-2------------------|---3-2-3-------|
                                                               2

  E E E E E E   E E E E E E   E E E E E E   E E E E E E   E E E E E E     E 
E E E E E E E
|-------------|-------------|-------------|-------------|-------------|-------------------|
|-5---4---4---|-------4-----|-5---4---4---|-------4-----|-5---4---4---|4:-------4-----5---|
|---3---2---2-|---------2-3-|---3---2---2-|---------2-3-|---3---2---2-|4:---------2-3---3-|
|-------------|-3-2-3-------|-------------|-3-2-3-------|-------------|---3-2-3-----------|

    E E E E E E   E E E E E E   E E E E E E   E E E E E E   E E E E E E   E 
E E E E E
|---------------|-------------|-------------|-------------|-------------|-------------|
|3:---5---4-----|-4---2-------|---5---4-----|-4---2-------|---2---5-2---|-4-------2---|
|4:-2---2---3---|-------3-5-3-|-2---2---3---|-------3-5-3-|-3---3-----5-|---5-2-3---5-|
|-------------5-|---5---------|-----------5-|---5---------|-------------|-------------|

  E E E E E E   E E E E E E   E E E E E E   E E E E E E   E E E E E E   E E 
E E E E
|-------------|-------------|-------------|-------------|-----------4-|---4---4-5-5-|
|---2---5-2---|-4-------2---|-------------|-------------|-------------|-------------|
|-3---3-----5-|---5-2-3---5-|-------------|-------------|-------------|-2---2-------|
|-------------|-------------|-3-2-3-2-3-2-|-5-3-5-3-5-3-|-5-3-5-3-5---|-------------|

  E E E E E E   E E E E E E   E E E E  E E      E E  E E  E  E  E      E  E 
E  E  E  E
|---5---5---5-|---7---7---9-|---9---10---10-|-----10---11----11----|-------------------|
|-------------|-------------|---------------|7:--------------------|3:----9------------|
|-3---3---3---|-5---5---5---|-7---7----8----|8:-8----8----11----11-|4:---------12------|
|-------------|-------------|---------------|----------------------|---10---10----12-8-|

  E  E E  E  E E    E  E E  E  E  E   E  E E  E  E E    E  E  E  E  E  E    
E  E  E  E  E  E
|-----------------|-----------------|-----------------|----14----14-------|-11----------------|
|-----------------|----9------------|-----------------|-10----10----14-12-|----12----10-14-12-|
|-12---10----9----|---------12------|-12---10----9----|-------------------|-------14----------|
|----8----12---10-|-10---10----12-8-|----8----12---10-|-------------------|-------------------|

  E  E  E  E  E  E    E  E  E  E  E  E    E E  E E  E E    E  E  E E  E  E   
  E  E E  E  E E
|----14----14-------|-11----------------|---12---11-9----|-11----9-------11-|----9-----------|
|-10----10----14-12-|----12----10-14-12-|-9----9---------|---------12-------|------10-12-9-9-|
|-------------------|-------14----------|-------------12-|----12------12----|-12-------------|
|-------------------|-------------------|----------------|------------------|----------------|

  E  E  E  E  E  E    E  E  E  E  E  E    E  E  E  E  E  E    E  E  E  E  E  
E
|-12----11-------11-|----12----11-------|-16----14----------|-------------17----|
|----------12-10----|-10----14----12----|----12----15----15-|----17-14-14----14-|
|----14-------------|----------------14-|-------------15----|-15----------------|
|-------------------|-------------------|-------------------|-------------------|

  E  E  E  E  E  E    E  E  E  E  E  E    E  E  E E  E E    E E  E E E E     
  E E E
|-16----14-------19-|----12-14-12-11----|-----------------|----------7----|---------|
|----14----16-16----|-12-------------14-|-12-10-9---------|-7----------10-|3:-------|
|-------------------|-------------------|---------10-9-10-|---10-9-7------|8:-------|
|-------------------|-------------------|-----------------|---------------|---7-3-2-|

     q Q q Q     h+e s s   h+e s s   h+e s s   q q q   h+e s s   h+e s s   
h+e s s   q q q
|------------|-----------|---------|---------|-------|---------|---------|---------|-------|
|10:-5-R---R-|3:---------|---------|---------|-------|---------|---------|---------|-------|
|8:------4---|4:-2-------|-2-------|-2-------|-------|-2-------|-2-------|-2-------|-------|
|------------|-------5-5-|-----2-2-|-----0-0-|-2-3-5-|-----5-5-|-----2-2-|-----0-0-|-2-3-5-|

  H   H   H   h q   H   H   H   h q     s s e s s e s s e s s e    s s e s s 
e s s e s s e
|---|---|---|-----|---|---|---|-----|---------------------------|---------------------------|
|---|---|---|-----|---|---|---|-----|4:-------------------------|.-------------------------.|
|-2-|---|---|-5---|-2-|---|---|-5---|4:-2-2-2-2-2-2-2-2-2-2-2-2-|.-2-2-2-2-2-2-2-2-2-2-2-2-.|
|---|-3-|-0-|---5-|---|-3-|-0-|---5-|---------------------------|---------------------------|

  q q q+s e s    s s e s s e s s e s s e    q q h    s s s s s s s s s s s s 
s s s s
|-------------|---------------------------|-------|-----------------------------------|
|-------------|.-------------------------.|-------|.---------------------------------.|
|-------------|.-2-2-2-2-2-2-2-2-2-2-2-2-.|-------|.---------------------------------.|
|-2-3-5---5-5-|---------------------------|-2-3-5-|--6-6-6-6-6-6-6-6-6-6-6-6-6-6-6-6--|
                                         2

  s s s s s s s s s s s s s s s s   s s s s s s s s s s s s s s s s s   q+s 
s Q s s s s
|---------------------------------|-----------------------------------|-----------------|
|---------------------------------|-----------------------------------|-----------------|
|---------------------------------|-5-5-5-5-5-5-5-5-5-5-5-5-5-5-5-5-5-|-3---3-3-3-3-3-3-|
|-3-3-3-3-3-3-3-3-3-3-3-3-3-3-3-3-|-----------------------------------|-----------------|

  q+s s Q s s s s   q+s s Q s s s s   w   w   h E E e   w  +w   w  +w  +w  
+w  +w  +w
|-----------------|-----------------|---|---|---------|---|---|---|---|---|---|---|---||
|-----------------|-----------------|---|---|---3-2---|---|---|---|---|---|---|---|---||
|-3---3-3-3-3-3-3-|-----------------|---|-3-|-3-----5-|-3-|---|---|---|---|---|---|---||
|-----------------|-6---6-6-6-6-6-6-|-6-|---|---------|---|---|-5-|---|---|---|---|---||


The bass solo starting at the * is played using the two-handed tapping 
method.  Bass-ically,  just use your left hand for the low notes, and your 
right for the high.  Actually, Myung used this solo as a warm-up before 
concerts, and the band heard it and said,"Hey, that'd be cool in   a song."  
Good luck!

Comments