Dream Theater - Take The Time Chords & Tabs

 

Take The Time Chords & Tabs

Dream Theater Chords & Tabs

Version: 1 Type: Bass Tab 0 ratings
1 star 2 stars 3 stars 4 stars 5 stars
comments

Take The Time Bass Tab

Band- Dream Theater
Song- Take The Time

Intro
C-----------|----------------------------------------------------------------|
G-----------|----------------------------------------------------------------|
D-----------|-------------------------------------------------------------2--|
A-----------|-------------------------------4-2-5-----------------------4----|
E-----------|---------------------------------------------------------4------|
B-2---2-2-2-|-2-2-2---2-2-2-2-2-2-2-2-2-2-2-------2-2-2--2-2-2--2-2-2--------|


C----------------------------------------------------------------------------|
G----------------------------------------------------------------------------|
D----------------------------------------------------------------------------|
A--------------------4-2-5---------------------------------------------------|
E---------------------------------------------------0-0-0-0-0-0-0-0-0-2-2-2--|
B-2-2-2-2-2-2-2-2-2---------2-2-2-2-2-2-2-2-2-2-2-2--------------------------|


C----------------------------------------------------------------------------|
G----------------------------------------------------------------------------|
D----------------------------------------------------------------------------|
A----------------------------------------------------------------------------|
E-2-2-2-2-2-------0-0-0-0-0-0-0-0-0-------------0-2-0---0-0-0-5-5-5-5-5-5-4--|
B-----------0-0-0-------------------2-2-2-2-2-2-------2----------------------|


						FILL 1 (3 times)
C-------------------------------------------|---------------------------|----|
G-------------------------------------------|---------------------------|----|
D-------------------------------------------|---------------------------|----|
A-------------------------------------------|------2---2-4--------------|----|
E-2-2-2-2-2-2-2-2-2-------0-0-0-0-0-0-0-0-0-|--------4-------------0-2--|----|
B-------------------0-0-0-------------------|--2-2---------2-2-2-2------|----|


   FILL 2 					FILL 3 (4 times)
C--------------------------------|--------|-----------------------------|----|
G--------------------------------|--------|-----------------------------|----|
D--------------------------------|--------|-----------------------------|----|
A---------2---2-4----------------|-FILL-1-|-----4---2---2-4-------------|----|
E-------4---4--------------0-0-2-|-8-times|-------4---4-------------0-2-|----|
B-2-2-2-----------2-2-2-2--------|--------|-2-2-------------2-2-2-2-----|----|


  FILL 4  (4 times)				  FILL 5
C----------------------------------------------|-----------------------------|
G-------------------------------1--------------|-----------------------------|
D-----------------------1-1---4---4-2-1--------|----------------------1-1----|
A-------2---2-4---2---2-----------------4-2----|------2---2-4---2---2--------|
E---------4---------4-----------------------4--|--------4---------4----------|
B---2-2---------2------------------------------|--2-2---------2--------------|
   ...There's something that I feel...


C-----------------|--------|------------------4---3-------4-----------------|
G-4-1-----1-4-1---|--------|------6-4-----8-----4-----6-6---6-4-------------|
D-----4-2-------4-|--------|----------6-4---6-------6-----------6-4-2-6-4-2-|
A-----------------|-FILL-4-|------------------------------------------------|
E-----------------|--------|------------------------------------------------|
B-----------------|--------|-2-2--------------------------------------------|


  Bridge to chorus
C--------------1-----3-----4---3-----------------------------|---------------|
G------4---------4-----4-----4---4-6---6-4---------4-2-------|---------------|
D--------6-4-2-----6-----6-----------6-----6-4---6-----------|---------------|
A--4-4-----------------------------------------7-------4-2---|---------------|
E----------------------------------------------------------4-|---------------|
B------------------------------------------------------------|---------------|


  Chorus
C----------------------------------------------------------------------------|
G----------------------------------------------------------------------------|
D----------------------------------------------------------------------------|
A----------------------------------------------------------------------------|
E-------------------------0-0-0-0-0-0-0-0-0-0-0-0-2-2-2-2-2-2-2-2-2-2-2-2----|
B-2-2-2-2-2-2-2-2-2-2-2-2----------------------------------------------------|


C----------------------------------------------------------------------------|
G----------------------------------------------------------------------------|
D----------------------------------------------------------------------------|
A------------------------------------------------------0-0-0-0-0-0-----------|
E--------0-0-0-0-0-0-0-0-------------------------0-0-0-------------4-4-4-----|
B--0-0-0-----------------2-2-2-2-2-2-2-2-2-2-2-2-----------------------------|


C----------------------------------------------------------------------------|
G----------------------------------------------------------------------------|
D----------------------------------------------------------------------------|
A----------------------4~-------------------------------2--------------------|
E-2-2-2-2-2-2-2-2-2-2--2~--0-0-0-0-0-0-0-0-0--------------5-5-5-5-2-2-2-2-2--|
B--------------------------------------------2--2-2-2-2----------------------|


C----------------------------------------------------------------------------|
G----------------------------------------------------------------------------|
D----------------------------------------------------------------------------|
A----------------------------------------------------------------------------|
E-4-5-5-5-5-5-7-----------------0-0-0-0-0-0-0-0-0-0-0-2-2-2-2-2-2-2-2-2-2----|
B---------------2-2-2-2-2-2-2-2----------------------------------------------|


C----------------|-----------------------------------------------------------|
G----------------|-----------------------------------------------------------|
D----------------|-----------------------------------------------------------|
A-2-2-2-2-2-2-2--|--2-2-2-2-0-1-2-2-2-2-0------------------------------------|
E----------------|------------------------2-0-0-0-0-0-0-0-0-0-0-0-0----------|
B----------------|-----------------------------------------------------------|
 End Chorus	   ... Unbroken spirit


C----------------------------------------------------------------------------|
G----------------------------------------------------------------------------|
D-------------------4--------------------------------------------------------|
A---------------4---------------------------------2-2-2-2-2-2-2-2-2-2-2-2----|
E-2-2-2-2-2-2-2---2---2-2-5-5-5-5-5-5-5-5-5-5-5-5----------------------------|
B----------------------------------------------------------------------------|


C----------------------------------------------------------------------------|
G-------------------6--------------------------------------------------------|
D---------------6------------------------------------------------------------|
A-4-4-4-4-4-4-4---4---4-4----------------------------------------------------|
E-------------------------5-5-5-5-5-5-5-5-5-5-5-0-0-0-0-0-0-0-0-0-0-0-0------|
B----------------------------------------------------------------------------|


C----------------------------------------------------------------------------|
G----------------------------------------------------------------------------|
D----------------------------------------------------------------------------|
A-2-2-2-2-2-2-2-2-2-2-2-2-------------------------2-2-2-2-2-2-2-2-2-2-2-2----|
E-------------------------0-0-0-0-0-0-0-0-0-0-0-0----------------------------|
B----------------------------------------------------------------------------|


C--------------------------------------------------------------------------|
G--------------------------------------------------------------------------|
D--------------------------------------------------------------------------|
A-------------------------2-2-2-2-2-2-2-2-2-2-2-2-4-4-4-6-6-6-7-7-7-6-6-6--|
E-5-5-5-5-5-5-5-5-5-5-5-5--------------------------------------------------|
B--------------------------------------------------------------------------|


C--------------------------------------------------------------------------|
G--------------------------------------------------------------------------|
D--------------------------------------------------------------------------|
A-0-0-0-0-0-0-0-0-0-0-0-0--------------------------------------------------|
E-------------------------0-0-0-0-0-0-0-0-0-0-0-0--------------------------|
B-------------------------------------------------2-2-2-2-2-2-2-2-2-2-2-2--|


C--------------------------------------------------------------------------|
G--------------------------------------------------------------------------|
D--------------------------------------------------------------------------|
A-------------------------------------------------2-2-2-2-2-2-2-2-2-2-2-2--|
E-0-0-0-0-0-0-0-0-0-0-0-0-2-2-2-2-2-2-2-2-2-2-2-2--------------------------|
B--------------------------------------------------------------------------|


C---------------------------------------------------------------------------|
G---------------------------------------------------------------------------|
D---------------------------------------------------------------------------|
A---------------------------------------------------------------------------|
E-------------------------------------------------2-2-2-2-2-2-2-2-2-2-2-2-2-|
B-2-2-2-2-2-2-2-2-2-2-2-2-5-5-5-5-5-5-5-5-5-5-5-5---------------------------|


C--------------------------------------------------------------------------|
G--------------------------------------------------------------------------|
D--------------------------------------------------------------------------|
A-2-2-2-2-2-2-2-2-2-2-2-2-------------2------------------------------------|
E---------------------------------------5--5-5-5-5-5-5-5-5-5-2-2-2-2-2-4---|
B-------------------------2--2-2--2-2--------------------------------------|


C--------------------------------------------------------------------------|
G--------------------------------------------------------------------------|
D--------------------------------------------------------------------------|
A-----------2--------------------------------------------------------------|
E-5-5-5-5-5----------------------0-0-0-0-0-0-0-0-0-0-0-0-2-2-2-2-2-2-2-2-2-|
B-------------2-2-2-2-2-2-2-2-2--------------------------------------------|


C--------------------------------------------------------------------------|
G--------------------------------------------------------------------------|
D-------------------------------4~~-2~~------------------------------------|
A-2-2-2-2-2-2-2-2-2-2--4~--2~~-----------4~--2~~---------------------------|
E-------------------------------------------------2~~------5--5~~--5-5~----|
B------------------------------------------------------0~~-----------------|
		     ...Close my eyes...


		 		(3:47)
C-----------------4~--3~~-----|---------------------------------------------|
G----2-6~--4~-6~-----------2~-|---------------------------------------------|
D-----------------------------|--6-4---4---------6--7-6-4---4---------6---7-|
A-----------------------------|------7---6----------------7---6-------------|
E--5--------------------------|------------4-4-4---4------------4-4-4---4---|
B-----------------------------|---------------------------------------------|
 Ora che ho perso la vista
 ci vedo di piu


C----------------------------------|----------------------------------------|
G----------------------------------|-------6---7-6-4---4--------------------|
D-6-4---4---------6---7-6-4---4----|------------------------------4---5-4-2-|
A-----2---------------------7---6--|-4-4-4---4-------7---5------------------|
E---------5-4-4-4---4--------------|------------------------2-2-2---2-------|
B----------------------------------|----------------------------------------|


C-------------------------------|-------------------------------------------|
G-------------------------------|-------------------------------------------|
D---2---------4---5-4-2---2-----|---4-4-----4-4---4-4-----4-6---4-4-----4-4-|
A-5---4-------------------------|-3-----3-3-----3-----3-3-----3-----3-3-----|
E-------2-2-2---2-------5---3-0-|-------------------------------------------|
B-------------------------------|-------------------------------------------|


C------------------------3-----1-1-----3-----3-3-----7-----7-7-----7-------|
G--------------------4-4-------------------------------4-4-----4-4---7-7-7-|
D----4-4-----6-6-7-7-------4-4-----4-4---6-6-----6-6-----------------------|
A--5-----5-5---------------------------------------------------------------|
E--------------------------------------------------------------------------|
B--------------------------------------------------------------------------|


	     (4:20)						(4:26)
C--7-7---9-|--------------------------------------------------|------------|
G------7---|--------------------------------------------------|------------|
D----------|---4-4---4-4---4-4---4-6---4-4---4-4---4-4---4-4--|--4---------|
A----------|-4-----4-----4-----4-----4-----4-----4-----4------|------------|
E----------|--------------------------------------------------|----2-2-2-2-|
B----------|--------------------------------------------------|------------|

[ Tab from: http://www.guitartabs.cc/tabs/d/dream_theater/take_the_time_btab.html ]
C---------------------------------------------------------------------------|
G---------------------------------------------------------------------------|
D-4---------4-----4-4-------4-------4-------4-------4---------4-------4-----|
A---------------------------------------------------------------------------|
E---2-2-2-2---2-2-----2-2-2---2-2-2---2-2-2---2-2-2---2-2-2-2---2-2-2---2-2-|
B---------------------------------------------------------------------------|


           (Guitar/Keyboard solo)
C--------------------------------------------------------------------------|
G---------------------------------------1-1--------------------------------|
D-------4-4---------4-4---------4-4-----------------6-6---------6-6--------|
A--------------------------------------------------------------------------|
E-2-2-2-----2-2-2-2-----2-2-2-2-----2-2-----4-4-4-4-----4-4-4-4-----4-4----|
B--------------------------------------------------------------------------|


C--------------------------------------------------------------------------|
G-------------4-4---------4-4----------------------------------------------|
D--------------------------------------------------4-----------4-----------|
A-2-2-2-2-2-2-----2-2-2-2-----2-2--6-6-6-6-6-6-6-6---7---7---7-------------|
E------------------------------------------------------0---0-----2-2-2-2---|
B--------------------------------------------------------------------------|


C--------------------------------------------------------------------------|
G-----------------------------------------------------------------4-4------|
D-4-4---------4-4-----6-6---------6-6---------6-6--------------------------|
A-----------------------------------------------------2-2-2-2-2-2----2-2-2-|
E-----2-2-2-2-----2-2-----4-4-4-4-----4-4-4-4-----4-4----------------------|
B--------------------------------------------------------------------------|


		        	End solo
C--------------------------------------------|
G---4-4---------------------4-4---------4-4--|
D--------------------------------------------|
A-2-----2-2-0-0-0-0-0-0-0-0-----2-2-2-2------|
E--------------------------------------------|
B--------------------------------------------|

  (4:48)
C-------------------|---------------------|-----------------|-----|
G-----------------6~|----4----------------|-----------------|-----|
D--------4-4---6----|-------4/5\4--2-4----|--2-4---2--------|-----|
A-4--7--------------|------------------2--|----------4-2----|-----|
E-------------------|---------------------|--------------xx-|-----|
B-------------------|---------------------|-----------------|-----|

C---------------------|------------------------|--------------------|---|
G---------------------|---------------------6--|---4----------------|---|
D---------------------|--------xx4-4---6-------|------xx4/5\4-2-4---|---|
A---4--------------x4-|-x-x-7------------------|------------------2-|---|
E-0---1--2--xx3--4----|------------------------|--------------------|---|
B---------------------|------------------------|--------------------|---|

C-----------------|----------------------------------|-------------------|
G-----------------|----------------------------------|---------------6---|
D-4--2------------|----------------------------------|-----xx4-4---6-----|
A--------4-xx2----|---4------------------x-2----x-4--|--7----------------|
E--------------xx-|-0---1---2----x-x-3-4-------------|-------------------|
B-----------------|----------------------------------|-------------------|

C-4-------------------|-------------------4/8--|----------------|-----|
G------6-4------------|-------------------1/4--|----------------|-----|
D----------6----4-2---|-xx4--2-----------------|----------------|-----|
A-------------------4-|----------4-xx2-4-------|--4-----4-----4-|-----|
E---------------------|------------------------|----2-----3-----|-----|
B---------------------|------------------------|----------------|-----|

C------------------|-----------13---------------------|-------------------|
G-------------xx6--|--6--9-11------11^12^11----11-----|-------------------|
D-----xx4-x-6------|-------------------------9----6~~-|-------------------|
A-x-7--------------|----------------------------------|-7~~---------------|
E------------------|----------------------------------|-------7~~~--------|
B------------------|----------------------------------|-------------------|

   Bridge to keyboard solo
C-------------------------------|
G-------------------------------|
D-------------------------------|
A-------------------------------|
E-1-0-2-0-3-4-0-5-0-6-0-7-8-----|
B-------------------------------|


  Keyboard solo
C---------------------------------------------------------------------------|
G-----------------------------------------------------------1-1-1-----------|
D-----------------------------------------------------4-----------4-4-2-2-4-|
A-----4---4---4-4-2-2-4-4-----4---4---4-4-2-2-4-4---------------------------|
E-------------------------------------------------2-2---2-2-----------------|
B-2-2---2---2-------------2-2---2---2---------------------------------------|


C---------------------------------------------------------------------------|
G-------------1-1-1---------------------------------------------------------|
D-4-----4-----------4-4-2-2-4-4-----2---2-2-2-2-2-0-0-2-2-----2---4-4-4-2-2-|
A---------------------------------------------------------------------------|
E---2-2---2-2-------------------0-0---0-------------------0-0---0-----------|
B---------------------------------------------------------------------------|


C--------------------------------------------------------------------------|
G-----------4--4-4-4-4-4-4-----------4-4---4-4-4-4-4-4---------------------|
D-0-0-2--------------------------------------------------------------------|
A-------2-2---2------------2-2-2-2-2-----2-------------2-----4---4---4-4-2-|
E--------------------------------------------------------------------------|
B--------------------------------------------------------2-2---2---2-------|


C---------------------------------------------------------------------------|
G-----------------------------------------1-1-1-----------------------1-1-1-|
D-----------------------------------------------4-4-2-2-4-4-----4-----------|
A-2-4-4-----4---4---4-4-2-2-4-4-----4---------------------------------------|
E-------------------------------2-2---2-2-------------------2-2---2-2-------|
B-------2-2---2---2---------------------------------------------------------|


C--------------------------------------------------------------------------|
G-------------------------------------------------------------------4------|
D-4-4-2-2-4-4-----2---2-2-2-2-2-0-0-2-2-----2---4-4-4-2-2-0-0-2------------|
A---------------------------------------------------------------2-2---2----|
E-------------0-0---0-------------------0-0---0----------------------------|
B--------------------------------------------------------------------------|


				End solo
C--------------------------------------------|-----------------------------|
G-4-4-4-4-4-4-----------4-4---4-4-4-4-4-4----|-----------------------------|
D--------------------------------------------|-----------------------------|
A-------------2-2-2-2-2-----2-------------2--|-----------------------------|
E--------------------------------------------|-----------------------------|
B--------------------------------------------|-2-2-2-2-2-2-2-2-2-2-2-2-----|


C--------------------------------------------------------------------------|
G--------------------------------------------------------------------------|
D--------------------------------------------------------------------------|
A-------------------------------------------------2-2-2-2-2-2-2-2-2-2-2-2--|
E-------------------------2-2-2-2-2-2-2-2-2-2-2-2--------------------------|
B-5-5-5-5-5-5-5-5-5-5-5-5--------------------------------------------------|


C--------------------------------------------------------------------------|
G--------------------------------------------------------------------------|
D--------------------------------------------------------------------------|
A--------------------------------------------------------------------------|
E-------------------------------------------------2-2-2-2-2-2-2-2-2-2-2----|
B-2-2-2-2-2-2-2-2-2-2-2-2-5-5-5-5-5-5-5-5-5-5-5-5--------------------------|


C---------------------|--------|--------------------------|---------|------|
G---------------------|--------|--------------------------|-Guitar/-|------|
D---------------------|-Chorus-|--------------------------|-Bass----|------|
A-2-2-2-2-2-2-2-2-2-2-|--------|-2~~----------------------|-Pause---|------|
E---------------------|--------|----------5~~----5~~~~~~--|---------|------|
B---------------------|--------|--------------------------|---------|------|
				... miiiiiiiiiiiiind


  (6:46)
C----(9-times)--------|----------------------------------------------------|
G---------------------|-----------------------------2---------2---------4--|
D---------2---------2-|---------2---------2--------------------------------|
A---------------------|---------------------0-0-0-0---0-0-0-0---2-2-2-2----|
E-0-0-0-0---0-0-0-0---|-2-2-2-2---2-2-2-2----------------------------------|
B---------------------|----------------------------------------------------|


C--------------------------------------------------------------------------|
G---------4--------------------------------------------------2---------2---|
D--------------------2---------2---------2---------2-----------------------|
A-2-2-2-2--------------------------------------------0-0-0-0---0-0-0-0-----|
E------------0-0-0-0---0-0-0-0---2-2-2-2---2-2-2-2-------------------------|
B--------------------------------------------------------------------------|
	       Find all you need in your mind...


C--------------------------------------------------------------------------|
G---------4---------4---------2---------2-----------------------------2----|
D-------------------------------------------------2---------2--------------|
A-2-2-2-2---2-2-2-2---0-0-0-0---0-0-0-0-----------------------0-0-0-0------|
E-----------------------------------------2-2-2-2---2-2-2-2----------------|
B--------------------------------------------------------------------------|


C--------------------------------------------------------------------------|
G---------2---------4---------4--------------------------------------------|
D---------------------------------------2---------2---------2---------2----|
A-0-0-0-0---2-2-2-2---2-2-2-2----------------------------------------------|
E-------------------------------0-0-0-0---0-0-0-0---2-2-2-2---2-2-2-2------|
B--------------------------------------------------------------------------|


C--------------------------------------------------------------------------|
G---------2---------2---------4---------4----------------------------------|
D-------------------------------------------------2---------2---------2----|
A-0-0-0-0---0-0-0-0---2-2-2-2---2-2-2-2------------------------------------|
E-----------------------------------------0-0-0-0---0-0-0-0---2-2-2-2------|
B--------------------------------------------------------------------------|


C--------------------------------------------------------------------------|
G--------------------2---------2---------4---------4-----------------------|
D---------2--------------------------------------------------2--------2----|
A------------0-0-0-0---0-0-0-0---2-2-2-2---2-2-2-2-------------------------|
E-2-2-2-2--------------------------------------------0-0-0-0---0-0-0-0-----|
B--------------------------------------------------------------------------|


C---------------------------------------------------------------------------|
G-----------------------------2---------2---------4---------4---------------|
D---------2---------2-------------------------------------------------2-----|
A---------------------0-0-0-0---0-0-0-0---2-2-2-2---2-2-2-2-----------------|
E-2-2-2-2---2-2-2-2-------------------------------------------0-0-0-0---0-0-|
B---------------------------------------------------------------------------|


C--------------------------------------------------------------------------|
G-----------------------------------2---------2----------------------------|
D-----2---------2---------2------------------------------2---------2-------|
A---------------------------0-0-0-0---0-0-0-0------------------------------|
E-0-0---2-2-2-2---2-2-2-2------------------------0-0-0-0---0-0-0-0---------|
B--------------------------------------------------------------------------|


C--------------------------------------------------------------------------|
G-----------------------------2---------2---------4---------4--------------|
D---------2---------2--------------------------------------------------2---|
A---------------------0-0-0-0---0-0-0-0---2-2-2-2---2-2-2-2----------------|
E-2-2-2-2---2-2-2-2--------------------------------------------0-0-0-0-----|
B--------------------------------------------------------------------------|


C--------------------------------------------------------------------------|
G--------------------------------------------------------------------------|
D---------2----------------------------------------------------------------|
A--------------------------------------------------------------------------|
E-0-0-0-0------------------------------------------------------------------|
B--------------------------------------------------------------------------|
Comments