Dream Theater - Strange Deja Vu Chords & Tabs

 

Strange Deja Vu Chords & Tabs

Dream Theater Chords & Tabs

Version: 3 Type: Bass Tab 0 ratings
1 star 2 stars 3 stars 4 stars 5 stars
comments

Strange Deja Vu Bass Tab

   
==============================================
paki rate pls mahirap gawin 2ng tab na 2 sana
paki rate ng maayos, i think mga 89% tama 2
kasi naman mgaling talaga si john myung, cge
chill out and rok on...
HOLOCAUST band bassist
==============================================
Strange deja vu
Intro - Riff A - 2x
G----------------------------------------------1-----2-|--------------------------|
D----------------------------------------2-1-----2-1---|--------------------------|
A--------------------------------------------0---------|--------------------------|
E-4-4-4-4--4-4-4-4---4-4-4---4-4-4---2-4---------------|-1-1-1-1--1-1-1-1--1-1-1--|
                                                         What a pleasant nightmare
  Riff B - 2x
G------------------------------------------|------|------|---|
D----------------------------------3-----4-|-Riff-|-Riff-|---|
A----------------------------3-2-----2-3---|--A---|--B---|---|
E-1-1-1--1-1-1---1-1-1-1-0-1-----2---------|------|------|---|


   Riff C - 2x
G----------------------------------------|---------------------------------------|
D-------------------6-----4--------------|------------------6-----2~-------------|
A-------0-0----------------------6-7-6-4-|-------0-0---------------------6-7-6-4-|
E-4-1-2-----4---4-4---4-4----4-4---------|-4-1-2-----4--4-4---4-4----4-4---------|
  Closer now...

G--------------------------------------------------------|---|
D------------------6-----2-----6-7-6-4-------------------|---|
A-------0-0----------------------------6-7-6---6-6--6~~--|---|
E-4-1-2-----4--4-4---4-4---4-4---------------7-----------|---|

  (0:55)
G----------------------------------------------------------|
D----------------------------------------------------------|
A----------------------------------------------------------|
E-4--4--4--4--4--4--4--4--4--4-4-4-4-4---4--4--4--4--4--4--|
  There's a house I'm drawn to...

G--------------------------------------------------------------------------|
D-3--3--3--3---3--3---3---------6-------3--3--3--3--3--3--3--------6-------|
A-------------------------8-6-8---8-7------------------------8-6-8---8-7---|
E--------------------------------------------------------------------------|
  There's a pathway leading there...

G--------------------------------------------------------------------------|
D--------------------------------------------------------------------------|
A--------------------------------------------------------------------------|
E-4-4-4-4-4-4-4-4-4-4-4-4-4-4-4-4-4-4-4-4-4-4-4-4-4-4-4-4-4-4-4-4-4-4-4-4--|
  There's a room at the top of the stairs....

G--------------------------------------------------------------------------|
D--------------------------------------------------------------------------|
A--------------------------------------------------------------------------|
E-1-1-1-1-1-1-1-1-1-1-1-1-1-1-1-1-1-1-1-1-1-1-1-1-1-1-1-1-1-1-1-1-1-1-1-1--|
              ...there's a girl in the mirror...

G--------------------------------------------------------------------------|
D--------------------------------------------------------------------------|
A-2-2-2-2-2-2-2-2-2-2-2-2-2-2-2-2-2-4-4-4-4-4-4-4-4-4-4-4-4-4-4-4-4-4-4-4--|
E--------------------------------------------------------------------------|
   ...young child...                    ...why I'm here?

[ Tab from: http://www.guitartabs.cc/tabs/d/dream_theater/strange_deja_vu_btab_ver_3.html ]
           "Victoria" Chorus:
G--------|-----------------------------------------------------|
D--Riff--|--------------6-7-------------------------6-7-9-7-6--|
A---C----|-4~~~~--6-7-9-------------------------7-9------------|
E--------|--------------------5~~~~~~---4~~~~------------------|
	   Tonight I've been searching...

				2:04
G-----------------------------|-------------------------------------------|
D-----------------------------|---------------6-7---------------6-7-9-7-6-|
A----------4------------------|--4~~~---6-7-9---------------7-9-----------|
E-2--4--5---------------------|--------------------5~~--4~----------------|
  ...that's deep inside me...   Tonight...

   2:09          Riff D
G-------------|----------------------------------------------|
D-------------|----7-----7-----9-----9-------7---------------|
A-------2~~~~-|----------------------------------------------|
E-4~~~--------|--5---5-5---5-7---7-7---7--5----5-0-1--2~~~---|
		I just can't help myself...

				(2:30)
G-----------------------------|-12-----12---------12-----12--------------|
D----7-----7----9-----9-------|----12-----12-14------12-----12-----------|
A-----------------------------|---------------------------------------5--|
E--5---5-5---7----7-7---7-8~~-|---------------------------------5-6-7----|
  tears my heart...

			   (2:38) Riff E
G---12-----12-----16~~~--|--------------------------------------------------|
D------12-----12---------|--------------------------------------------------|
A------------------------|-----5-7---5/7---5--7--5-7--------------5-7---5/7-|
E-0~~~~~~~~~~~~~~~~~~~~--|-0-------0-----0------------0-0-3--5--0-----0-----|

						  (2:48)
G----------------------------------------------------------------------------|
D----------------------------------------------------------------------------|
A---5--7--5-7-------------5-7---5/7---5-7--5--7-------------4-5----5-7---5-7-|
E-0-----------0-0-5-3--0------0-----0-----------0-0-5-6-7-8------0-----0-----|

					  (3:20) Riff 2x
G------------------------------|--------|-----------------------------------|
D------------------------------|-Riff-E-|---------------2-------------------|
A---5-7--5-7-------------5-5-5-|--------|-4~----------2-----4~--------------|
E-0----------0-0-3-4-5-0-------|--------|-----0-2-3-4-----------0-2-3-4-3-2-|

					2x
G-----------------------------------|---------------------------------------|
D--------------2------------2-0-----|---4-6---6-4---------------------------|
A-4~---------2-----4~-----------2---|---------------2~--4-6-4-2--------6-8--|
E----0-2-3-4----------0-2-3-------4-|-4-----4-----4-------------2--4~~------|

							    (3:47)
G------------------------|-------------------------------|------------------|
D---6-4------------------|----4-6---6-4------------------|------------------|
A---------2--4-6-4-2-----|----------------2--4-6-------2-|-4~~--------------|
E-4-----4------------2-4-|-4~-----4-----4--------2-3-4---|-----5~~--4~~~----|


G-------------6-7--------------------6-7-9-7-6-|--------------|--------|
D-4~~~--6-7-9--------------------7-9-----------|----------6---|--------|
A-------------------5~~~~~--4~~----------------|-2--4--5------|--------|
E----------------------------------------------|--------------|--------|
						 Won't go away...

G------------6-7------------------6-7-9-7-6-|----------------------|--|
D-4~~--6-7-9------------------7-9-----------|-Riff-D-2x------------|--|
A----------------5~~~~--4~~~----------------|-with-some-variations-|--|
E-------------------------------------------|----------------------|--|

G-----------------------------------------------|
D-----------------------------------------------|
A--3~~~~---3~~~~---5~~~--7~~~~------------------|
E--------------------------------3~~~~~~~~~~~~~-|
Comments