Dream Theater - Space Dye Vest Chords & Tabs

 

Space Dye Vest Chords & Tabs

Dream Theater Chords & Tabs

Version: 1 Type: Tab 0 ratings
1 star 2 stars 3 stars 4 stars 5 stars
comments

Space Dye Vest Tab

   
SPACE-DYE VEST
Dream Theater
Tabbed by Ronaldo J. Jappe (jappe@azcomnet.com.br)

Keyboard part arranged for guitar
(0:00)
e|----------------------------------------------|
B|----------------------------------------------|
G|o----9-------10--9-9---9-10-9----12--10-10----|
D|o-12---12---------------------12--------------|
A|----------12----------------------------------|
D|----------------------------------------------|

e|----------------------------------------------|
B|--------------10-----------10-------11--10-10-|
G|--10-12-10-------12-12--12----12-9------------|
D|-----------12---------------------------------|
A|----------------------------------------------|
D|----------------------------------------------|

e|----------------------------------------------|
B|--10-11-10----13--11-11--11-10----10-11-10-10-|
G|-----------10------------------12-------------|
D|----------------------------------------------|
A|----------------------------------------------|
D|----------------------------------------------|

e|----------------------------------------------|
B|--10----------10------------------------------|
G|-----12-10-12----12-12--10-9----9-10-9--------|
D|-----------------------------12--------12-----|start again
A|--------------------------------------------12|
D|----------------------------------------------|


John Petrucci part.
Here, he just fingerpicks this part

Dropped-D Tunning (after a 20-bar rest)

Riff 1 (Acoustic nylon guitar)
(1:05)
e|-----------------------------------|
B|-----------------------------------|
G|--------0-------------2---0--------|
D|------0-----3---2-------------3----|
A|----0-----0---0-----0---0---0---0--|
D|--0---------------0----------------|

                                      last time(2:02)
e|-----------------------------------|-----|
B|-----------------------------------|-----|
G|--------0-------------0------------|-----|
D|--2---0-----3---2---0-----3---2----|--0--|
A|----1-----1---1---1-----1---1---1--|--0--|
D|-----------------------------------|--0--|

Play Riff A 2 times and start to sing:

Falling through pages of Martens on angels
Feeling my heart pull west
I saw the future dressed as a stranger
Love in a space-dye vest

Love is an act of blood and I'm bleeding
A pool in the shape of a heart
Beauty projection in the reflection
Always the worst way to start

(keyboard part)
	Over this keyboard part there's a sample voice
that goes like this:

"But he's the sort who can't know anyone intimately,
least of all a woman. He doesn't know what a woman is.
He wants you for a possession, something to look at like
a painting or an ivory box. Something to own and to
display. He doesn't want you to be real, or to think or
to live. He doesn't love you, but I love you. I want you
to have your own thoughts and ideas and feelings, even
when I hold you in my arms. It's our last chance... It's
our last chance..."
    [Sample from the film "A Room With A View"]


w/ distortion
  (2:39)
   Dm
e|----------------------------------------------|
B|----------------------------------------------|
G|----------------------------------------------|
D|-(0)------------------------------------------|
A|--0-------------------------------------------|
D|--0-------------------------------------------|

1.  Now that you're gone I'm trying to take it
2.  Found a new girl I think we can make it

   Bb
e|----------------------------------------------|
B|----------------------------------------------|
G|----------------------------------------------|
D|----------------------------------------------|
A|--8-------------------------------------------|
D|--8-------------------------------------------|

    Learning to swallow the rage
    As long as she stays on the page

   (2:58)
   Dm                                Bb    G
e|----------------------------------------------|
B|----------------------------------------------|
G|----------------------------------------------|
D|--0-------------------------------------------|
A|--0---------------------------------8----5----|
D|--0---------------------------------8----5----|
    This is not how I wanted it to end
    
   Dm                       Bb    
e|----------------------------------------------|
B|----------------------------------------------|
G|----------------------------------------------|
D|--0-------------------------------------------|
A|--0------------------------8------------------|
D|--0------------------------8------------------|
    And I'll never be open again

   Dm  C Dm  C Bb  C Bb  G  F  E Dm   (Fade away)
e|----------------------------------------------|
B|----------------------------------------------|
G|----------------------------------------------|
D|-----5-----5--3--5--3-------------------------|
A|--0--3--0--3--1--3--1--5--3--2-0~~~~~---------|
D|--0-----0--------------5--3--2-0~~~~~---------|
[ Tab from: http://www.guitartabs.cc/tabs/d/dream_theater/space_dye_vest_tab.html ]
(another keyboard part)
	Another sample voices:
	"...I was gonna move out...ummm...get, get a job, get my own
     place, ummm, but... I go into the mall where I want to work and
     they tell me, I'm, I was too young..."
    [Sample from a 1994 PBS documentary on dysfunctional families.]
    "Some people, gave advice before, about facing the facts,
     about facing reality. And this is, this without a
     doubt, is his biggest challenge ever. He's going to
     have to face it. You're gonna have to try, he's gonna
     to have to try and, uh, and, and, and get some help here. I mean
     no one can say they know how he feels."
    [Sample from a news commentary about the OJ Simpson freeway chase.]
    "That, so they say that, in ya know like, Houston or something,
     you'd say it's a hundred and eighty degrees, but it's a dry heat.
     In Houston they say that?
     Oh, maybe not. I'm all mixed up.
     Dry until I had the swimming pool."
    [Sample from the Conan O'Brien show.]
    "...I get up with the sun... Listen. You have your own room to
     sleep in, I don't care what you do. I don't care when. That
     door gets locked, that door gets locked at night by nine
     o'clock. If you're not in this house by nine o'clock, then you'd
     better find some place to sleep. Because you're not going to be
     a bum in this house. Supper is ready..."
    [Sample from a 1994 PBS documentary on dysfunctional families.]


  (4:32)
e|----------------------------------------------|
B|----------------------------------------------|
G|----------------------------------------------|
D|-------------0--------------------------------|
A|-------------0--------------------------------|
D|-------------0--------------------------------|
      There's no one to take my blame

              Bb(w/ Fill 1)                        Fill 1
e|----------------------------------------------|----------|
B|----------------------------------------------|----------|
G|----------------------------------------------|--7~~~~~~~|
D|------------8---------------------------------|----------|
A|------------8---------------------------------|----------|
D|------------8---------------------------------|----------|
   If they wanted to

           Dm
e|----------------------------------------------|
B|----------------------------------------------|
G|----------------------------------------------|
D|----------0-----------------------------------|
A|----------0-----------------------------------|
D|----------0-----------------------------------|
   There's nothing to keep me sane
   And it's all the same to you

           Dm
e|----------------------------------------------|
B|----------------------------------------------|
G|----------------------------------------------|
D|----------------------------------------------|
A|----------0-----------------------------------|
D|----------0-----------------------------------|
 1.There's nowhere to set my aim
 2.Never come near me again

          Bb                  G
e|----------------------------------------------|
B|----------------------------------------------|
G|----------------------------------------------|
D|----------------------------------------------|
A|--------8-------------------5-----------------|
D|--------8-------------------5-----------------|
   So I'm everywhere
   Do you really think I need you ?

  (5:10)
                        bend 1 step
e|------------------------------(14)------------|
B|------------------------------/-\-------------|
G|-------7~~~~7/12-10-9-7~~/12-/---\12--10------|
D|----------------------------------------------|
A|----------------------------------------------|
D|----------------------------------------------|
    I'll never be open again

e|-----------------------------------|
B|-----------------------------------|
G|-------9~~/12-10-9~~7/12--10--9-(7)| repeat it
D|-----------------------------------|
A|-----------------------------------|
D|-----------------------------------|
    I could never be open again


  (5:29) 
   Dm                                    Bb  G
e|----------------------------------------------|
B|----------------------------------------------|
G|----------------------------------------------|
D|-(7)~~~~~~~-----------------------------------|
A|--0-------------------------------------8--5--|
D|----------------------------------------8--5--|
     And I'll smile and I'll learn to pretend
     

  Repeat this figure 5 times                     last time
       Dm                        Bb     G          G   A
e|-x-x------------------------------------------|----------|
B|-x-x------------------------------------------|----------|
G|-x-x------------------------------------------|----------|
D|-x-x--7~~~~~~~--------------------------------|----------|
A|-x-x--0-------------------------8-----5-------|--5---7---|
D|-x-x--0-------------------------8-----5-------|--5---7---|
         And I'll never be open again
         And I'll have no more dreams to defend
         And I'll never be open again

  (6:25)
   Bb    G  A Bb    G     Dm  A/D Bb/D   A  (Fade)
e|-----------------------------------------------|
B|-----------------------------------------------|
G|-------------------------7---------------------|
D|-------------------------7--7----8-----7-------|
A|--8----5--7--8----5------5--7----8-----7-------|
D|--8----5--7--8----5------0--0----0-----7-------|

Keyboard part arranged for guitar
  (6:56)
e|----------------------------------------------|
B|----------------------------------------------|
G|o----9-------10--9-9---9-10-9----12--10-10----|
D|o-12---12---------------------10--------------|
A|----------12----------------------------------|
D|----------------------------------------------|

e|----------------------------------------------|
B|--------------10-----------10-------11--10-10-|
G|--10-12-10-------12-12--12----12-9------------|
D|-----------12---------------------------------|
A|----------------------------------------------|
D|----------------------------------------------|

e|----------------------------------------------|
B|--10-11-10----13--11-11--11-10----10-11-10-10-|
G|-----------10------------------12-------------|
D|----------------------------------------------|
A|----------------------------------------------|
D|----------------------------------------------|
                                          (7:29)
e|----------------------------------------------|
B|--10----------10------------------------------|
G|-----12-10-12----12-12--10-9----9-10-9--------|
D|-----------------------------12--------12-----|
A|----------------------------------------------|
D|----------------------------------------------|

It was done Tuesday night, December 2nd, 1997 &
Sunday night, December 15, 1997 by Ronaldo
E-Mail me: Ronaldo Jappe
jappe@azcomnet.com.br
Comments