Dream Theater - Regression Chords & Tabs

 

Regression Chords & Tabs

Dream Theater Chords & Tabs

Version: 2 Type: Tab 1 rating
1 star 2 stars 3 stars 4 stars 5 stars
comments

Regression Tab

   
Dream Theater - Regression
"scenes from a memory"
---------------------------

acoustic guitar.
the strumming starts with downstroke,
and then a quick 'upstroke-downstroke', 'upstroke-downstroke'.
you can hear it easily.

intro and 2 verses:
     D                                             D/F#                 
E||--2--------2--2----2--|--2--------2--2----2--|--2--------2--2----2--|
B||--3--------3--3----3--|--3--------3--3----3--|--3--------3--3----3--|
G||--2--------2--2----2--|--2--------2--2----2--|--2--------2--2----2--|
D||--0--------0--0----0--|--0--------0--0----0--|--0--------0--0----0--|
A||----------------------|----------------------|--0--------0--0----0--|
E||----------------------|----------------------|--2--------2--2----2--|

                         G                                              
--2--------2--2----2--|--3--------3--3----3--|--3-----------3--3----3--|
--3--------3--3----3--|--3--------3--3----3--|--3-----------3--3----3--|
--2--------2--2----2--|--0--------0--0----0--|--0-----------0--0----0--|
--0--------0--0----0--|--0--------0--0----0--|--0-----------0--0----0--|
--0--------0--0----0--|--2--------2--2----2--|--0h2---------2--2----2--|
--2--------2--2----2--|--3--------3--3----3--|--3-----------3--3----3--|

  D                      D/C#                   Bm                   
--2--------2--2----2--|--2--------2--2----2--|--2--------2--2----2--|
--3--------3--3----3--|--3--------3--3----3--|--3--------3--3----3--|
--2--------2--2----2--|--2--------2--2----2--|--4--------4--4----4--|
--0--------0--0----0--|----------------------|--4--------4--4----4--|
----------------------|--4--------4--4----4--|--2--------2--2----2--|
----------------------|----------------------|----------------------|
[ Tab from: http://www.guitartabs.cc/tabs/d/dream_theater/regression_tab_ver_2.html ]
                         Bm/A                                        
--2--------2--2----2--|--2--------2--2----2--|--2--------2--2----2--|
--3--------3--3----3--|--3--------3--3----3--|--3--------3--3----3--|
--4--------4--4----4--|--4--------4--4----4--|--4--------4--4----4--|
--4--------4--4----4--|--4--------4--4----4--|--4--------4--4----4--|
--2--------2--2----2--|--0--------0--0----0--|--0--------0--0----0--|
----------------------|----------------------|----------------------|

  E                                             A7sus4               
--0--------0--0----0--|--0--------0--0----0--|--0--------0--0----0--|
--0--------0--0----0--|--0--------0--0----0--|--3--------3--3----3--|
--1--------1--1----1--|--1--------1--1----1--|--0--------0--0----0--|
--2--------2--2----2--|--0--------0--0----0--|--2--------2--2----2--|
--2--------2--2----2--|--2--------2--2----2--|--0--------0--0----0--|
--0--------0--0----0--|--0--------0--0----0--|----------------------|

  A7                    
--0--------0--0----0--||
--2--------2--2----2--||
--0--------0--0----0--||
--2--------2--2----2--||
--0--------0--0----0--||
----------------------||


the last verse:

  G                                             A7                   
--3--------3--3----3--|--3--------3--3----3--|--0--------0--0----0--|
--3--------3--3----3--|--3--------3--3----3--|--2--------2--2----2--|
--0--------0--0----0--|--0--------0--0----0--|--0--------0--0----0--|
--0--------0--0----0--|--0--------0--0----0--|--2--------2--2----2--|
--2--------2--2----2--|--2--------2--2----2--|--0--------0--0----0--|
--3--------3--3----3--|--3--------3--3----3--|----------------------|


  A7sus4                 D                             
--0--------0--0----0--|--2------------|
--3--------3--3----3--|--3------------|
--0--------0--0----0--|--2------------|
--2--------2--2----2--|--0------------|
--0--------0--0----0--|---------------|
----------------------|---------------|

1
Safe in the light that surrounds me;
free from the fear and the pain.
My subconscious mind
start spinning through tide,
to reach on the past once again.

2
And nothing seems real -
I'm starting to feel
lost in the haze of a dream...
And as i draw near
the scene becomes clear,
like watching my life on a screen.

3
Hello, Victoria,
so glad to see you,
my friend.
Comments