Dream Theater - Regression Chords & Tabs

 

Regression Chords & Tabs

Dream Theater Chords & Tabs

Version: 1 Type: Tab 0 ratings
1 star 2 stars 3 stars 4 stars 5 stars
comments

Regression Tab

   
Act I, Scene One: "Regression"
********************************************************************************
Notes used      *- = 1/8 note
                *--- = 1/4 note
                *----- = 3/8 note
                |*-----------|------------ = double whole note
********************************************************************************
Acoustic Guitar
Measure         |------------| = 3 beats
Tempo           1/4 note = 112
********************************************************************************

 Bm                        Bm/A                      E/G#                      A7sus        A7
|2-----2-2-2-|2---2-2-2-2-|2-----2-2-2-|2---2-2-2-2-|0-----0-0-0-|0---0-0-0-0-|0-----0-0-0-|0---0-0-0-0-|
|3-----3-3-3-|3---3-3-3-3-|3-----3-3-3-|3---3-3-3-3-|0-----0-0-0-|0---0-0-0-0-|3-----3-3-3-|2---2-2-2-2-|
|4-----4-4-4-|4---4-4-4-4-|4-----4-4-4-|4---4-4-4-4-|------------|------------|0-----0-0-0-|0---0-0-0-0-|
|4-----4-4-4-|4---4-4-4-4-|4-----4-4-4-|4---4-4-4-4-|2-----2-2-2-|2---2-2-2-2-|2-----2-2-2-|2---2-2-2-2-|
|2-----2-2-2-|2---2-2-2-2-|0-----0-0-0-|0---0-0-0-0-|------------|------------|0-----0-0-0-|0---0-0-0-0-|
|------------|------------|------------|------------|4-----4-4-4-|4---4-4-4-4-|------------|------------|

 D                         D/F#                      G5           G/B          D            D/C#
|2-----2-2-2-|2---2-2-2-2-|------------|------------|3-----3-3-3-|3---3-3-3-3-|2-----2-2-2-|2---2-2-2-2-|
|3-----3-3-3-|3---3-3-3-3-|3-----3-3-3-|3---3-3-3-3-|3-----3-3-3-|3---3-3-3-3-|3-----3-3-3-|3---3-3-3-3-|
|2-----2-2-2-|2---2-2-2-2-|2-----2-2-2-|2---2-2-2-2-|0-----0-0-0-|0---0-0-0-0-|2-----2-2-2-|2---2-2-2-2-|
|0-----0-0-0-|0---0-0-0-0-|0-----0-0-0-|0---0-0-0-0-|0-----0-0-0-|0---0-0-0-0-|0-----0-0-0-|------------|
|------------|------------|------------|------------|------------|2---2-2-2-2-|------------|4---4-4-4-4-|
|------------|------------|2-----2-2-2-|2---2-2-2-2-|3-----3-3-3-|------------|------------|------------|
[ Tab from: http://www.guitartabs.cc/tabs/d/dream_theater/regression_tab.html ]
 Bm                        Bm/A                      E/G#                      A7sus        A7
|2-----2-2-2-|2---2-2-2-2-|2-----2-2-2-|2---2-2-2-2-|0-----0-0-0-|0---0-0-0-0-|0-----0-0-0-|0---0-0-0-0-|
|3-----3-3-3-|3---3-3-3-3-|3-----3-3-3-|3---3-3-3-3-|0-----0-0-0-|0---0-0-0-0-|3-----3-3-3-|2---2-2-2-2-|
|4-----4-4-4-|4---4-4-4-4-|4-----4-4-4-|4---4-4-4-4-|------------|------------|0-----0-0-0-|0---0-0-0-0-|
|4-----4-4-4-|4---4-4-4-4-|4-----4-4-4-|4---4-4-4-4-|2-----2-2-2-|2---2-2-2-2-|2-----2-2-2-|2---2-2-2-2-|
|2-----2-2-2-|2---2-2-2-2-|0-----0-0-0-|0---0-0-0-0-|------------|------------|0-----0-0-0-|0---0-0-0-0-|
|------------|------------|------------|------------|4-----4-4-4-|4---4-4-4-4-|------------|------------|

 D                         D/F#                      G5           G/B          D            D/C#
|2-----2-2-2-|2---2-2-2-2-|------------|------------|3-----3-3-3-|3---3-3-3-3-|2-----2-2-2-|2---2-2-2-2-|
|3-----3-3-3-|3---3-3-3-3-|3-----3-3-3-|3---3-3-3-3-|3-----3-3-3-|3---3-3-3-3-|3-----3-3-3-|3---3-3-3-3-|
|2-----2-2-2-|2---2-2-2-2-|2-----2-2-2-|2---2-2-2-2-|0-----0-0-0-|0---0-0-0-0-|2-----2-2-2-|2---2-2-2-2-|
|0-----0-0-0-|0---0-0-0-0-|0-----0-0-0-|0---0-0-0-0-|0-----0-0-0-|0---0-0-0-0-|0-----0-0-0-|------------|
|------------|------------|------------|------------|------------|2---2-2-2-2-|------------|4---4-4-4-4-|
|------------|------------|2-----2-2-2-|2---2-2-2-2-|3-----3-3-3-|------------|------------|------------|

 Bm                        Bm/A                      E/G#                      A7sus        A7
|2-----2-2-2-|2---2-2-2-2-|2-----2-2-2-|2---2-2-2-2-|0-----0-0-0-|0---0-0-0-0-|0-----0-0-0-|0---0-0-0-0-|
|3-----3-3-3-|3---3-3-3-3-|3-----3-3-3-|3---3-3-3-3-|0-----0-0-0-|0---0-0-0-0-|3-----3-3-3-|2---2-2-2-2-|
|4-----4-4-4-|4---4-4-4-4-|4-----4-4-4-|4---4-4-4-4-|------------|------------|0-----0-0-0-|0---0-0-0-0-|
|4-----4-4-4-|4---4-4-4-4-|4-----4-4-4-|4---4-4-4-4-|2-----2-2-2-|2---2-2-2-2-|2-----2-2-2-|2---2-2-2-2-|
|2-----2-2-2-|2---2-2-2-2-|0-----0-0-0-|0---0-0-0-0-|------------|------------|0-----0-0-0-|0---0-0-0-0-|
|------------|------------|------------|------------|4-----4-4-4-|4---4-4-4-4-|------------|------------|

 G5           G/B          A7           A7sus        D            (hold)
|3-----3-3-3-|3---3-3-3-3-|0-----0-0-0-|0---0-0-0-0-|2-----------|------------|
|3-----3-3-3-|3---3-3-3-3-|2-----2-2-2-|3---3-3-3-3-|3-----------|------------|
|0-----0-0-0-|0---0-0-0-0-|0-----0-0-0-|0---0-0-0-0-|2-----------|------------|
|0-----0-0-0-|0---0-0-0-0-|2-----2-2-2-|2---2-2-2-2-|0-----------|------------|
|------------|2---2-2-2-2-|0-----0-0-0-|0---0-0-0-0-|------------|------------|
|3-----3-3-3-|------------|------------|------------|------------|------------|
Comments