Dream Theater - One Last Time Chords & Tabs

 

One Last Time Chords & Tabs

Dream Theater Chords & Tabs

Version: 1 Type: Bass Tab 0 ratings
1 star 2 stars 3 stars 4 stars 5 stars
comments

One Last Time Bass Tab

   
                         SCENE SEVEN: 1 1. ONE LAST TIME
                          As recorded by DREAM THEATER

Words by James LabrieMusic by DREAM THEATER
Transcribed by Joe Britton - Larrylaffer_uk@yahoo.co.uk

Gtr I (B E A D G C) - 

 4/4
  Gtr I
  W          W          W          W
|----------|----------|----------|------|
|----------|----------|----------|------|
|----------|----------|----------|------|
|-4--------|-2--------|----------|------|
|----------|----------|-4--------|-5----|
|----------|----------|----------|------|


  W          W          W          W
|----------|----------|----------|------|
|----------|----------|----------|------|
|----------|----------|----------|------|
|-4--------|-2--------|----------|------|
|----------|----------|-4--------|-5----|
|----------|----------|----------|------|


  W          W          W          W
|----------|----------|----------|------|
|----------|----------|----------|------|
|----------|----------|----------|------|
|-4--------|-2--------|----------|------|
|----------|----------|-4--------|-5----|
|----------|----------|----------|------|


  Q  +E  E +Q   Q    W            Q   +E   E  +Q    Q    W
|------------------|----------|------------------------|------|
|------------------|----------|------------------------|------|
|------------------|----------|------------------------|------|
|-4--(4)-6-(6)--7--|-9--------|-/11--(11)--------------|------|
|------------------|----------|-----------11-(11)\--4--|-5----|
|------------------|----------|------------------------|------|


  q  Q  q  E. S   e e E e q  Q    q  Q  q  E. S   e e E e q  Q
|---------------|---------------|---------------|---------------|
|---------------|---------------|---------------|---------------|
|---------------|---------------|---------------|---------------|
|---------------|---------------|---------------|---------------|
|-9-----9-------|-9-9-----9-----|-9-----9-------|-9-9-----9-----|
|-------------9-|-------9-------|-------------9-|-------9-------|


  q  Q  q  E. S   e e E e q  Q    q  Q  q  E. S   e e E e q  Q
|---------------|---------------|---------------|---------------|
|---------------|---------------|---------------|---------------|
|---------------|---------------|---------------|---------------|
|---------------|---------------|---------------|---------------|
|-9-----9-------|-9-9-----9-----|-9-----9-------|-9-9-----9-----|
|-------------9-|-------9-------|-------------9-|-------9-------|


  q  Q  q  E. S   e e E e q  Q    q  Q  q  E. S   e e E e q  Q
|---------------|---------------|---------------|---------------|
|---------------|---------------|---------------|---------------|
|---------------|---------------|---------------|---------------|
|---------------|---------------|---------------|---------------|
|-9-----9-------|-9-9-----9-----|-9-----9-------|-9-9-----9-----|
|-------------9-|-------9-------|-------------9-|-------9-------|


  q  Q  q  E. S   E E E E q  Q    q  Q  q  E. S   E E E E H
|---------------|---------------|---------------|---------------|
|---------------|---------------|---------------|---------------|
|---------------|---------------|---------------|---------------|
|---------------|---------------|---------------|---------------|
|-9-----9-------|-9-9-----9-----|-9-----9-------|-9-9-----9\----|
|-------------9-|-------9-------|-------------9-|-------9-------|


  W          W          W          W
|----------|----------|----------|------|
|----------|----------|----------|------|
|----------|----------|----------|------|
|-4--------|-2--------|----------|------|
|----------|----------|-4--------|-5----|
|----------|----------|----------|------|


  W          W          W          W
|----------|----------|----------|------|
|----------|----------|----------|------|
|----------|----------|----------|------|
|-4--------|-2--------|----------|------|
|----------|----------|-4--------|-5----|
|----------|----------|----------|------|


  W          Q  +E  E +Q   Q    H.      +E  S S   Q  +E  E +Q   Q
|----------|------------------|-----------------|-------------------|
|----------|------------------|-----------------|-------------------|
|----------|------------------|-----------------|-------------------|
|-4--------|-2--(2)-4-(4)--6--|-----------------|--------7-(7)--6---|
|----------|------------------|-4-------(4)-2-4-|-5--(5)------------|
|----------|------------------|-----------------|-------------------|


  H.      +E  S S   Q  +E  E +Q   Q
|-----------------|------------------|
|-----------------|------------------|
|-----------------|------------------|
|-4-------(4)-6-7-|-6--(6)-7-(7)--9--|
|-----------------|------------------|
|-----------------|------------------|


   Q   +E   E  Q  +E  S S   Q  +E  E +Q   Q
|-------------------------|------------------|
|-------------------------|------------------|
|-------------------------|------------------|
|-11--(11)----------------|------------------|
|----------11\-4--(4)-2-4-|-5--(5)-4-(4)--0--|
|-------------------------|------------------|


 7/4         4/4             7/4
  W   +H.      W      +W      Q  Q  S S S S E  E +E  E E E E E
|-----------|------|--------|----------------------------------|
|-----------|------|--------|----------------------------------|
|-----------|------|--------|----4--2-------2--4-(4)-------2-4-|
|-----------|------|--------|---------4-2-0----------2-2-4-----|
|-2---(2)---|--2---|--(2)---|-2--------------------------------|
|-----------|------|--------|----------------------------------|


 4/4                                    7/4
  Q  Q  S S S S E E   +E  E E E E E Q    Q  Q  S S S S E E +E  E E E E E
|-------------------|------------------|----------------------------------|
|-------------------|------------------|----------------------------------|
|----4--2-------2-4-|-(4)-------2-4-2--|----4--2-------2-4-(4)-------2-4--|
|---------4-2-0-----|-----2-2-4--------|---------4-2-0---------2-2-4------|
|-2-----------------|------------------|-2--------------------------------|
|-------------------|------------------|----------------------------------|


 4/4                          slap---------------|   
  Q  Q  S S S S S S E   +E  E S S S S S S S S E E
|---------------------|-------4-----6---6---5---4-|
|-------------------2-|-(2)-----4h6---------------|
|----4--2-------2-4---|-----4---------x---3---2---|
|---------4-2-0-------|---------------------------|
|-2-------------------|---------------------------|
|---------------------|---------------------------|


 7/4
  Q  Q  S S S S E E +E  E E E E E
|---------------------------------|
|---------------------------------|
|----4--2-------2-4-(4)-------2-4-|
|---------4-2-0---------2-2-4-----|
|-2-------------------------------|
|---------------------------------|

[ Tab from: http://www.guitartabs.cc/tabs/d/dream_theater/one_last_time_btab.html ]
 4/4
  Q  Q  S S S S E E   +E  E E S S S S S S S E.
|-------------------|--------------------------|
|-------------------|-------------2-4-4-4-2h4--|
|----4--2-------2-4-|-(4)-----2-4--------------|
|---------4-2-0-----|-----2-4------------------|
|-2-----------------|--------------------------|
|-------------------|--------------------------|


  E. S S S E +E  S S E E    E. S S S E +E  E S S E
|-------------------------|------------------------|
|-------------------------|------------------------|
|----------7-(7)-----7----|------------------------|
|-0--0-0-0-------0-0---0--|-2--2-2-2-2-(2)-2-2-2-2-|
|-------------------------|------------------------|
|-------------------------|------------------------|


  E. S S S  E +E  E +E  E
|----------------------------|
|----------------------------|
|----------/7-(7)------------|
|-0--0-0-0-------------------|
|-----------------0-(0)-0----|
|----------------------------|


  E. S S S  E +E  S S S S E
|---------------------------|
|---------------------------|
|---------------------------|
|----------/9-(9)-9-9-7-9-9-|
|-2--2-2-2------------------|
|---------------------------|


  E. S S S  E +E  S S S S E   E. S S S E +E  E S S E
|---------------------------|-------------------------|
|---------------------------|-------------------------|
|----------/7-(7)-----7-7---|-------------------------|
|-0--0-0-0--------0-0-----0-|-2--2-2-2-2-(2)-2-2-2-2--|
|---------------------------|-------------------------|
|---------------------------|-------------------------|


  E. S S S E +E  S S E E   E. S S S E +E  S S Q     E. S S S  E +E  E  S S E
|------------------------|------------------------|----------------------------|
|------------------------|------------------------|----------------------------|
|------------------------|------------------------|----------/7-(7)----7-7-----|
|-3--3-3-3-3-(3)-3-3-3-3-|-5--5-5-5-5-(5)-5-5-5\--|-0--0-0-0--------0------0---|
|------------------------|------------------------|----------------------------|
|------------------------|------------------------|----------------------------|


  E. S S S E +E  E E  E     H   H      Q  +E  E  +H       W
|-----------------------|-----------|----------------|---------|
|-----------------------|-----------|----------------|---------|
|-----------------------|-----------|----------------|---------|
|-2--2-2-2-2-(2)-2-2--2-|--/9---7---|--5--(5)-5--(5)-|---------|
|-----------------------|-----------|----------------|----0----|
|-----------------------|-----------|----------------|---------|


  H.   E E     +W        W         +W       Q +E  E Q +E  E
|----------|---------|--------|----------|-------------------|
|----------|---------|--------|----------|-------------------|
|----------|---------|--------|----------|-------------------|
|----------|---------|--------|----------|--2-(2)-2-2-(2)-2--|
|-3----3-3-|---(3)---|---5----|----(5)---|-------------------|
|----------|---------|--------|----------|-------------------|


           |-3-|                               |-3-|
  +E  E H  E E E    Q +E  E Q +E  E   +E  E H  E E E   Q +E  E H
|----------------|------------------|----------------|--------------|
|----------------|------------------|----------------|--------------|
|----------------|------------------|----------------|--------------|
|-(2)-2-2--2-1-0-|------------------|----------------|--------------|
|----------------|--4-(4)-4-4-(4)-4-|-(4)-4-4--4-3-2-|-1-(1)-1-1----|
|----------------|------------------|----------------|--------------|


  E E +E  E  H     Q +E  E Q Q    E E +Q   H    Q +E  E +E   E  Q
|---------------|--------------|-------------|-----------------------|
|---------------|--------------|-------------|-----------------------|
|---------------|------------6-|-------------|-----------------------|
|---------------|--------------|-------------|-----------------------|
|-1-1-(1)-1--1--|--4-(4)-4-4---|--4-4-(4)--4-|--8-(8)-8-(8)--8--8----|
|---------------|--------------|-------------|-----------------------|


  Q  +E  E +E  E Q    Q  +E  E +E  E Q    Q  +E  E +E  E Q   Q  +E  E  +H
|-------------------|-------------------|------------------|------------------|
|-------------------|-------------------|------------------|------------------|
|-------------------|-------------------|------------------|------------------|
|-------------------|-8--(8)-8-(8)-8-8--|-6--(6)-6-(6)-6-6-|-5--(5)-5--(5)----|
|-6--(6)-6-(6)-6-6--|-------------------|------------------|------------------|
|-------------------|-------------------|------------------|------------------|


  W           W
|--------|---------*|
|--------|---------*|
|--------|---------*|
|-4------|---------*|
|--------|---------*|
|--------|----1----*|


Duration Legend
---------------
W - whole; H - half; Q - quarter; E - 8th; S - 16th; T - 32nd; X - 64th; a - acciaccatura
+ - note tied to previous; . - note dotted; .. - note double dotted
Uncapitalized letters represent notes that are staccato (1/2 duration)
Irregular groupings are notated above the duration line
Duration letters will always appear directly above the note/fret number it represents the
duration for.  Duration letters with no fret number below them represent rests.  Multi-
bar rests are notated in the form Wxn, where n is the number of bars to rest for.  Low
melody durations appear below the staff

Tablature Legend
----------------
 h   - hammer-on
 p   - pull-off
 b   - bend
 pb  - pre-bend
 r   - bend release (if no number after the r, then release immediately)
 /\  - slide into or out of (from/to "nowhere")
 s   - legato slide
 S   - shift slide
  - natural harmonic
[n]  - artificial harmonic
n(n) - tapped harmonic
 ~   - vibrato
 tr  - trill
 T   - tap
 TP  - trem. picking
 PM  - palm muting
\n/  - tremolo bar dip; n = amount to dip
 \n  - tremolo bar down
 n/  - tremolo bar up
/n\  - tremolo bar inverted dip
 =   - hold bend; also acts as connecting device for hammers/pulls
   - volume swell (louder/softer)
 x   - on rhythm slash represents muted slash
 o   - on rhythm slash represents single note slash

Misc Legend
-----------
 |  - bar
||  - double bar
||o - repeat start
o|| - repeat end
*|  - double bar (ending)
 :  - bar (freetime)
 $  - Segno
 &  - Coda
Tempo markers -  = BPM(8/16=s8/s16), where s8 = swing 8ths, s16 = swing 16ths


*****************************************************************************************
* Generated using Power Tab Editor by B.S. Larsen - http://www.crosswinds.net/~powertab *
*****************************************************************************************

Comments