Dream Theater - New Millenium Chords & Tabs

 

New Millenium Chords & Tabs

Dream Theater Chords & Tabs

Version: 1 Type: Bass Tab 0 ratings
1 star 2 stars 3 stars 4 stars 5 stars
comments

New Millenium Bass Tab

   
Band- Dream Theater
Song- New Millenium

0:29 -> Riff A 3x
G-------------------------------------------------------------------------------|
D-11-----11-----11-----11-----11---11---11-----11-----11---11---11---11---11----|
A-------------------------------------------------------------------------------|
E----7-9----7-9----7-9----7-9----9----9----7-9----7-9----9----9----9----7----7--|
B-------------------------------------------------------------------------------|

   Riff B 3x
G-------------------------------------------------------------------------|--|
D-11-----11----11-----11-----11---11---16------16------16------16------16-|--|
A-------------------------------------------------------------------------|--|
E----7-9---7-9----7-9----7-9----9----9----9-12----9-12----9-12----9-12----|--|
B-------------------------------------------------------------------------|--|

  Riff C 3x				1:19		    Riff D  8x
G----------------------------------|--------------------|--------------------|
D-11-----11-----11-----11-----11---|--------------------|--------------------|
A----------------------------------|---------2--2-2-2-2-|-4-4-4-4-4-2-2-2-2--|
E----7-9----7-9----7-9----7-9----7-|0--0-0~-------------|--------------------|
B----------------------------------|--------------------|--------------------|

		     1:51
G-----------------|----------------------------------------------------------|
D-2/4-4-4-4-2-2-2-|----------------------------------------------------------|
A-----------------|----------------------------------------------------------|
E-----------------|----------------------------------------------------------|
B-----------------|-2~--2~--2~--2~--2~--2~--2-2~--2-2~--2-2~--2-2~--2-2~-----|

  2:34
G---------------------------------------------------------------------------|
D---------------------------------1-----------------------------------------|
A----6-----5------2---------------------4---------3---------------6---------|
E---------------------------2---1-----1---------------------------------4---|
B-4-6--4-6---4--4---4-6-4-6---4-----4-----4-6-4-6---4-6-4-6-8-4-6---4-6---4-|

G-----------------------------------------------------------------------|---|
D------------------------------------------------2-4---2-4--2-4---2-4---|---|
A---2-------------6-7-----6-7-----6-7-----6-7---------------------------|---|
E-----------2-4-0-----0-0-----0-0-----0-0----0-2-----2-----2----2-------|---|
B-4---4-5-5-------------------------------------------------------------|---|

     8x					4x		4x
G---------------------------|--------|---------------|-----------------------|
D-------2-------------------|-Chorus-|---------------|-----------------------|
A-4-2-4---4-2---4-----------|-Riff-D-|-4-----4-------|-----------------------|
E-------------4-------3-2---|---4x---|---------------|-------------0---------|
B-----------------0-2-----0-|--------|---0-2---0-2-0-|-2-0-2-2-0-2---2-2-2---|

							2x
G----------------------------------------------|--------------------------------|
D----------------------------------------------|--------------------------------|
A----------------------------------------------|--------------------------------|
E-----------0--------------0---------------0-0-|--------------------------------|
B-2-0-2-0-2----2-0-2-2-0-2---2-2-2-2-0-2-0-----|-4-2-4-4-2-4-6-4-4-4-4-2-4-2-5-5|

[ Tab from: http://www.guitartabs.cc/tabs/d/dream_theater/new_millenium_btab.html ]
G-------------------|---------------------------------------------------------|
D-------------------|----------------------------------2-4---2-4--2-4---2-4---|
A---------------4-6-|---6-7-----6-7-----6-7-----6-7---------------------------|
E-----------4-6-----|-0-----0-0-----0-0-----0-0----0-2-----2-----2----2-------|
B-4-4-4-2-4---------|---------------------------------------------------------|

G-------------------------------------------------|--------------------------|
D-------------------------------------------------|--------------------------|
A-----------4---------------------------------2-4-|-----------4--------------|
E-------0-2---0-0-2-3-2-0-------0-2-4-0-2-3-4-----|-------0-2---0-0-2-3-2-0--|
B-2-2-2-------------------2-2-2-------------------|-2-2-2--------------------|

G---------------------------------------------------------------------------|
D---------------------------------------------------------------------------|
A-------------4---2-----------------4---------------------------------------|
E-------0-2-4---4---2-3-0-------0-2-----0-2-3-2-0-------0-2-4-2-0-2-3-2-0---|
B-2-2-2-------------------2-2-2-------2-----------2-2-2---------------------|

G-------------------------------------------------|--------|----------------|
D-------------------------------------------------|-Chorus-|----------------|
A-----------4-------------------------------------|--------|----------------|
E-------0-2-----0-2-3-2-0-------0-2-----0-2-3-2-0-|--------|----------------|
B-2-2-2-------2-----------2-2-2-----2-2-----------|--------|----------------|

  4:54    5:14  -> 4x
G------|---------------------------------------------------------------------|
D------|-11------9-------11------9-------11----9----11------9--11------------|
A------|------11---9-11-------11---9-11-----11---9-------11---9--------------|
E------|----9---------------9--------------------------9----------9----------|
B-2--2-|---------------------------------------------------------------------|

			     6:22				6:29
G---------------|----------|---------------------------------|---------------|
D----9------9---|----------|---------------------------------|-Riff-A-2x-----|
A-11---9-11---9-|-Riff-A-5x|------------------2--2-2---2-2-2-|---------------|
E---------------|----------|-0--0-0--0--0-0------------------|---------------|
B---------------|----------|---------------------------------|---------------|

    6:41
G----------------------------------------------------------------------------|
D----------------------------------------------------------------------------|
A----------------------------------------------------------------------------|
E-2-2--2-2--2-2---2--2---2-2--2-2--2-2--0-0-0-0--0-0--0-0-0-0-0-2-2-2-2-2----|
B----------------------------------------------------------------------------|

		   7:27
G----------------------------------------------------------------------------|
D---------------------------------------------------0------------------------|
A-----------------------------------------------------2-0--------------------|
E-2-2-2--2--2-2-2--0-0-0-0-0-0-0-0-0-0-0-0-0-0-0----------4-2----------------|
B-------------------------------------------------------------3--------------|

   7:12->7:19		6x
G---------------|-------------------------|--------------------------|-------|
D---------------|-------------------------|--------------------------|-------|
A---------------|-------------------------|--------------------------|-------|
E---------------|-------0-2-----0-2-3-2-0-|-------0-2-----0-3-2--0-2-|-------|
B-2-2-2-2-2-2-2-|-2-2-2-----2-2-----------|-2-2-2-----2-2------------|-------|

G------------|---------------------------------------------------------------|
D--Chorus----|---------------------------------------------------------------|
A------------|---------------------------------------------------------------|
E------------|---------------------------------------------------------------|
B------------|-2-2--2--2-2-2--2----------------------------------------------|
Comments