Dream Theater - Metropolis Part 1 Chords & Tabs

 

Metropolis Part 1 Chords & Tabs

Dream Theater Chords & Tabs

Version: 3 Type: Bass Tab 0 ratings
1 star 2 stars 3 stars 4 stars 5 stars
comments

Metropolis Part 1 Bass Tab

Intro (4 times)
G------------------------------------------------------------------------------|
D------------------------------------------------------------------------------|
A-----------------------------3~--3-3-3--3-3-3---------------------------------|
E--2-3-0~--0-0-0--0-0-0---2-3--------------------------------------------------|

               Start the vocals……………
G------------|--------|--------------------------------------------------------|
D------------|--------|----------------------5~--4~--------------2-------------|
A------------|--------|-----2~--2-2-2------2---------2-2-2-----2---------------|
E--2-3-0~----|-0------|-2-3----------------------------------------3~----------|
    (1:20)     (1:41)   (2:12)


G-------------------|---------|--------------------|---------------------------|
D-------------------|--(2:28)-|-------(3 times)----|---(2:58)------------------|
A--3-3-3-3----------|---------|--------------------|---------------------------|
E-----------3~--2~--|--0~~~---|--0--3~---0--3~--2~-|--0-0-0-0-0----3~~--0~~----|

G------------------------------------------------------------------------------|
D------------------------------------------------------------------------------|
A--2~---2-2-2-2---5-5-3-3-2-2---2--2-5-5-3-3-2-2-------------------------------|
E-------------------------------------------------2~---5~----------------------|

G------------------------------------------------------------------------------|
D------------------------------------------------------------------------------|
A-2--2-2-2----2-2-5-5-3-3-2-2--2-2-5-5-3-3-2-2---------------------------------|
E-----------------------------------------------2~--5~-------------------------|

  (3:23)
G---(4 times)-----------|----(9 times)----|------------------------------------|
D-----------------------|-----------------|------------------------------------|
A------------5------5---|-7-7-7-7-7-7-----|-------------2~-2-2-2-2-------------|
E--0-0-0-0-0---0-0-0--0-|-------------0-0-|-0-0-0-0-2-3------------------------|


G-------------------------------------------------------(4:15)-----------------|
D-------5~--4~-------------2~--------------------------------------------------|
A-2-2-2----------2-2-2-2-2---------3-3-3-3-------------------------------------|
E-----------------------------3~-----------3~--2~----0~~~~~~~~-----------------|

G------6----4-4---------4-4-----4-4-------------6---4-4-------------4----------|
D----4---4------4-----2-----2-2-----2-2-------4---4-----4-------7-----2--------|
A--2----------------0-------------------0---2-----------------5---5------------|
E-----------------------------------------------------------3-----------3------|

G------6----4-4---------4-4-----4-4-------------6---4-4-------------4----------|
D----4---4------4-----2-----2-2-----2-2-------4---4-----4-------7-----2--------|
A--2----------------0-------------------0---2-----------------5---5------------|
E-----------------------------------------------------------3-----------3------|

G-----------------------------------------|------------------------------------|
D-----------------------------------------|------------------------------------|
A-2--2--2--------------2-2--2--2------2-2-|-2-2-2---------2-2-2-2-----2-2------|
E----------5--5--5--5-------------5-5-----|-------5-5-5-5---------5-5----------|

G------------------------------------------------------------------------------|
D------------------------------------------------------------------------------|
A--2~---------2~---------2~----------2~----------------------------------------|
E------5~~~~------3~~~~------5~~~~-------3~~~----------------------------------|

G------6----4-4-------------------------------------------------1-2------------|
D----4---4------4-------9---9--------7-----7------4-5-4------------------------|
A--2------------------7---7---7----5-----5------2-------2-----3----------------|
E-------------------5------------7-----3------0-------------2------------------|

G------5-4~~~--------------2-~~~-----------------------------------------------|
D--5---------------------2---------2--0~~~~----2--3~~~~~----2--4~~~------------|
A----3-------------------------------------------------------------------------|
E------------------------------------------------------------------------------|

G--------------------(5:21)----------------------------------------------------|
D-2--4-4-----------------------------------------------------------------------|
A------------------------------------------------------------------------------|
E-----------------2-2-2-2-2-------0--2~~~---0--2~~---2-2---2-2---2--2--0-------|


BASS SOLO: This one is though !!!!
	4X		    4X			 2X		      2X
G-------11-------|--------12----------|--------14---------|--------16----------|
D---4------9---4-|---5-------10----5--|---7-------12----7-|---9-------14----9--|
A-----9------9---|-----10-------10----|-----12-------12---|-----14-------14----|
E-2--------------|-3------------------|-5-----------------|-7------------------|
  L L R R  R R L... etc.

Keyboard and guitar
Solo stay only!!

|---------------------------|-------|
|---------------------------|-------|
|---------------------------|-------|
|---2-2-2-2-2-2-2-2-2-2-2-2-|-------|
[ Tab from: http://www.guitartabs.cc/tabs/d/dream_theater/metropolis_part_1_btab_ver_3.html ]
   6:22 			      6:39 (17 times)
G-----------------------------------|--------4------------|--------------------|
D-----------------------------------|-----0----------3-5--|--------------------|
A-----------------------------------|-2-2--------2-3------|--------------------|
E-0-0-0---------0-0-0----------0-0-0|---------------------|--------------------|

   7:02  (4 times)
G-------------------|------------------------------------3---------------------|
D---------------2-3-|-----------------------4------4-2-2-----------------------|
A-------------2-----|----------5----2-5-3-3----5-6-----------------------------|
E-0-0-0-0-0-0-------|--3-6-4-4-------------------------------------------------|

				7:11 (4 times)
G--3-2-1-0------8-----------|----------------------------|---------------------|
D----------3-3--------5-4---|----------------------------|---------------------|
A-----------------5-5-------|-------------4-4-3-3-2-1--1-|---------------------|
E---------------------------|-4-4-3-2-2-2----------------|---------------------|

  This part is cool!!!
G------------------------------------------------------------------------------|
D--------4------5---4---4----------4------5---4---4----------4-----------------|
A----------2-3----3---2---2----------2-3----3---2---2----------2-3-------------|
E--3-2-3---------------------3-2-3---------------------3-2-3-------------------|

G------------------------------------------------------------------------------|
D--5---4---4----------2-----5------5---4------4---2---0------5---4-------------|
A----3---2---2----------2-3---3--2---2---3----------3---3--2---2---3-----------|
E---------------3-2-3----------------------5----5--------------------5---------|

G------------------------------------------------------------------------------|
D--4---2----------2---5------4--------------2---5------4-----------------------|
A----0---3-5-3--3---3---7-5----5-----7-5--3---3---7-5----5-----7-5-------------|
E--------------------------------7-8-----------------------7-8-----------------|

G-------------------------------------4---4---4-5-5----5---5---5---------------|
D------------------------------------------------------------------------------|
A---------------------------------------2---2--------3---3---3-----------------|
E-2-3-2-3-2-3--5-3-5-3-5-3--5-3-5-3-5------------------------------------------|

G---7---7---7----9---10---10---10---11-----11--------4---2---------------------|
D----------------------------------------------------------2-------------------|
A-5---5---5----7---7----8----8----8----11-----11---5---5-----3-----------------|
E------------------------------------------------------------------------------|

G-2-------------4---2-----2--------------14---14--9-7--11-7---5-9-7------------|
D-----5---4-----------2-------5---4---10----10--------------9------------------|
A---3---7---5--5--5-----3---3---7---5------------------------------------------|
E------------------------------------------------------------------------------|

G----14---14-9-7--11-7---5-9-7---12----11-9---11---9-7---11---9-5-7-4-4--------|
D--10---10-------------9-------10----10------7----7-----7----7-----------------|
A------------------------------------------------------------------------------|
E------------------------------------------------------------------------------|

G-12---11-7-5-11--5-12-9-11-7----16----14--11----11------12-9-9--17-9----------|
D----9------------------------7-----12--------10------10-----------------------|
A------------------------------------------------------------------------------|
E------------------------------------------------------------------------------|

G--16-9-14-11-11-19--7-12-14-12-11-9--7-5-4------------------------------------|
D-------------------------------------------5-4-5--7-5-4---12-10---------------|
A--------------------------------------------------------7---------------------|
E------------------------------------------------------------------------------|

                8:05
G------------|-----------------------------------------------------------------|
D--------5---|-----------------------------------------------------------------|
A-2--------4-|--2~~------2~~-----2~~-----------------------2~~-----------------|
E---3-2------|------5-5------2-2-----0-0--2-3-5-7~~--5-5-------2-2-------------|

G---------------------------------------------------|--------------------------|
D---------------------------------------------------|--------------------------|
A-2~~-------------------------5~---------------5~---|2-2-2---2-2-2--2-2--------|
E-----0-0--2-3-5-7~---3~--0~------5-7~--3~--0~----5-|--------------------------|

G------------------------------------------------------------------------------|
D------------------------------------------------------------------------------|
A-------------2-2-2--2-2-2--2-2-2--2-2-2--2-2-2---------1-1-1--1-1-1-1-1-------|
E--2-3-5~-5-5-----------------------------------2-3-5~-------------------------|

G------------------------------------------------------------------------------|
D------------------------------------------------------------------------------|
A-------------------5-5-5-5-5---5-5-5-5--2~-2-2~--2-2-2-2---2~-2-2~------------|
E-3-3-3-3---3-3-3-3------------------------------------------------------------|

G------------------------------------------------------------------------------|
D--------------------------------------3-2-0-----------------------------------|
A-1~-1-1~--1-1-1-1---1~~~---3~~~~--3~---------3~~~~~~--------------------------|
E------------------------------------------------------5~~~~~~~~~~~~-----------|

HI TO EVERYONE WHO KNOWS ME!!!!!!!!
KUNG MAY MALI OK LANG YAN!!!!!
"HOW's MY DRIVING ???"
contact LTRCB hotline #09214487777
ENJOY THE SONG !!!!
Comments