Dream Theater - I Walk Beside You Chords & Tabs

 

I Walk Beside You Chords & Tabs

Dream Theater Chords & Tabs

Version: 1 Type: Bass Tab 0 ratings
1 star 2 stars 3 stars 4 stars 5 stars
comments

I Walk Beside You Bass Tab

   
Band- Dream Theater
Song- I'll Walk Beside You

Gtr I (B E A D G C#) - 'Bass'

 Intro
  Q=132
 4/4
  Gtr I
  Wx4
|--------|
|--------|
|--------|
|--------|
|--------|
|--------|


    E E E E E E E E   E E E E E E E E   E E E E E E E E   E E E E E E E E
||------------------|-----------------|-----------------|------------------||
||o-----------------|-----------------|-----------------|-----------------o||
||------------------|-----------0-0-2-|-----------------|------------------||
||--2-2-2-2-2-2-2-2-|-2-4-4-4-4-------|-2-2-2-2-2-2-2-2-|-2-------------0--||
||o-----------------|-----------------|-----------------|---2-2-2-2-3-3---o||
||------------------|-----------------|-----------------|------------------||


   Verse I
    E E E E E E E E   E E E E E E E E   E E E E E E E E   E E E E E E E E  4x
||------------------|-----------------|-----------------|------------------||
||o-----------------|-----------------|-----------------|-----------------o||
||------------------|-----------0-0-2-|-----------------|------------------||
||--2-2-2-2-2-2-2-2-|-2-4-4-4-4-------|-2-2-2-2-2-2-2-2-|-2-------------0--||
||o-----------------|-----------------|-----------------|---2-2-2-2-3-3---o||
||------------------|-----------------|-----------------|------------------||


 Pre-Chorus
  $
  E E E E E E E E   E E E E E E E E   E E E E E E E E   E E E E E E E E
|-----------------|-----------------|-----------------|------------------|
|-----------------|-----------------|-----------------|------------------|
|-----------------|-----------------|-----------------|------------------|
|-----------------|-----------------|-2-2-2-2-2-2-2-2-|-2-2-2-2-2-2-2-2--|
|-3-3-3-3-3-3-3-3-|-----------------|-----------------|------------------|
|-----------------|-5-5-5-5-5-5-5-5-|-----------------|------------------|


  E E E E E E E E   E E E E E E E E   E E E E E E E E   E E E E E E E E
|-----------------|-----------------|-----------------|------------------||
|-----------------|-----------------|-----------------|------------------||
|-----------------|-----------------|-----------------|------------------||
|-----------------|-----------------|-5-5-5-5-5-5-5-5-|-5-5-5-5-5-5-5-5--||
|-3-3-3-3-3-3-3-3-|-2-2-2-2-2-2-2-2-|-----------------|------------------||
|-----------------|-----------------|-----------------|------------------||


 Chorus
  E E E E E E E E   E E E E E E E E   E E E E E E E E   E E E E E E E E
|-----------------|-----------------|-----------------|------------------|
|-----------------|-----------------|-----------------|------------------|
|-----------------|-----------------|-----------------|------------------|
|-5-5-5-5-5-5-5-5-|-5-5-5-5-5-5-5-5-|-----------------|------------------|
|-----------------|-----------------|-5-5-5-5-5-5-5-5-|-5-5-5-5-5-5-5-5--|
|-----------------|-----------------|-----------------|------------------|


  E E E E E E E E   E E E E E E E E   E E E E E E E E   E E E E E E E E
|-----------------|-----------------|-----------------|------------------|
|-----------------|-----------------|-----------------|------------------|
|-----------------|-----------------|-----------------|------------------|
|-2-2-2-2-2-2-2-2-|-2-2-2-2-2-2-2-2-|-----------------|------------------|
|-----------------|-----------------|-3-3-3-3-3-3-3-3-|-3-3-3-3-3-3-3-3--|
|-----------------|-----------------|-----------------|------------------|


                                                               To Coda
  E E E E E E E E   E E E E E E E E   E E E E E E E E   E E E E E E E E
|-----------------|-----------------|-----------------|------------------||
|-----------------|-----------------|-----------------|------------------||
|-----------------|-----------------|-----------------|------------------||
|-----------------|-----------------|-1-1-1-1-1-1-1-1-|-1-1-1-1-1-1-1-1--||
|-----------------|-----------------|-----------------|------------------||
|-3-3-3-3-3-3-3-3-|-3-3-3-3-3-3-3-3-|-----------------|------------------||


  E E E E E E E E   E E E E E E E E   E E E E E E E E   E E E E E E E E
|-----------------|-----------------|-----------------|------------------|
|-----------------|-----------------|-----------------|------------------|
|-----------------|-----------------|-----------------|------------------|
|-2-2-2-2-2-2-2-2-|-2-2-2-2-2-2-2-2-|-----------------|------------------|
|-----------------|-----------------|-3-3-3-3-3-3-3-3-|-3-3-3-3-3-3-3-3--|
|-----------------|-----------------|-----------------|------------------|


 Break
  E E E E E E E E   E E E E E E E E   E E E E E E E E   E E E E E E E E
|-----------------|-----------------|-----------------|------------------||
|-----------------|-----------------|-----------------|------------------||
|-----------------|-----------0-0-2-|-----------------|------------------||
|-2-2-2-2-2-2-2-2-|-2-4-4-4-4-------|-2-2-2-2-2-2-2-2-|-2-------------0--||
|-----------------|-----------------|-----------------|---2-2-2-2-3-3----||
|-----------------|-----------------|-----------------|------------------||


   Verse II
                                                            D.S. al Coda
    E E E E E E E E   E E E E E E E E   E E E E E E E E   E E E E E E E E  4x
||------------------|-----------------|-----------------|------------------||
||o-----------------|-----------------|-----------------|-----------------o||
||------------------|-----------0-0-2-|-----------------|------------------||
||--2-2-2-2-2-2-2-2-|-2-4-4-4-4-------|-2-2-2-2-2-2-2-2-|-2-------------0--||
||o-----------------|-----------------|-----------------|---2-2-2-2-3-3---o||
||------------------|-----------------|-----------------|------------------||


  &
                                                        |-3-| |-3-| |-3-|
  E E E E E E E E   E E E E E E E E   E E E E E E E E   E E E E E E E E E E E
|-----------------|-----------------|-----------------|-----------------------||
|-----------------|-----------------|-----------------|-----------------------||
|-----------------|-----------------|-----5-----------|---5---5-5---5-5---5---||
|-2-2-2-2-2-2-2-2-|-2-2-2-2-2-2-2-2-|-----------------|-----5-----5-----5-----||
|-----------------|-----------------|-3-3---3-3-3-3-3-|-3-------------------3-||
|-----------------|-----------------|-----------------|-----------------------||

[ Tab from: http://www.guitartabs.cc/tabs/d/dream_theater/i_walk_beside_you_btab.html ]
 Bridge
  H     H      E Q  E  E E Q    Q.   E H      E E E E E E Q
|------------|----------------|-------------|-----------------|
|------------|----------------|-------------|-----------------|
|------/7----|--------/7---7--|--------5----|---------5---5---|
|-0----------|-0-0--0----0----|-------------|-----------------|
|------------|----------------|-3----3------|-3-3-3-3---3-----|
|------------|----------------|-------------|-----------------|


  H    H      H    E E Q    Q.   E H      E E E E E E E E
|-----------|-------------|-------------|------------------|
|-----------|-------------|-------------|------------------|
|------4----|------4---4--|-------------|------------------|
|-----------|-------------|--------5----|---5-5---5---5----|
|-2---------|-2------2----|-------------|------------------|
|-----------|-------------|-3----3------|-3-----3---3---3--|


  Q.   E H      E Q  E E E Q    Q.   E H      E E E E q  q
|-------------|---------------|-------------|----------------|
|--------2----|--------2---2--|-------------|----------------|
|------2------|------2---2----|--------5----|---------5------|
|-0-----------|-0-0-----------|-------------|----------------|
|-------------|---------------|-3----3------|-3-3-3-3----3---|
|-------------|---------------|-------------|----------------|


  H    H      Q.   E E E Q    Q.   E H      Q.   E H
|-----------|---------------|-------------|-------------|
|-----------|---------------|-------------|-------------|
|------4----|--------4---4--|-------------|-------------|
|-----------|---------------|-------------|-------------|
|-2---------|-2----2---2----|-1----1-1----|-------------|
|-----------|---------------|-------------|-5----5-3----|


  E E E E E E E E   E E E E E E E E   E E E E E E E E   E E E E E E E E
|-----------------|-----------------|-----------------|------------------||
|-----------------|-----------------|-----------------|------------------||
|-----------------|-----------------|-----------------|------------------||
|-----------------|-----------------|-----------------|------------------||
|-3-3-3-3-3-3-3-3-|-3-3-3-3-3-3-3-3-|-3-3-3-3-3-3-3-3-|-3-3-3-3-3-3-3-3--||
|-----------------|-----------------|-----------------|------------------||


 Chorus
  E E E E E E E E   E E E E E E E E   E E E E E E E E   E E E E E E E E
|-----------------|-----------------|-----------------|------------------|
|-----------------|-----------------|-----------------|------------------|
|-2-2-2-2-2-2-2-2-|-2-2-2-2-2-2-2-2-|-----------------|------------------|
|-----------------|-----------------|-2-2-2-2-2-2-2-2-|-2-2-2-2-2-2-2-2--|
|-----------------|-----------------|-----------------|------------------|
|-----------------|-----------------|-----------------|------------------|


  E E E E E E E E   E E E E E E E E   E E E E E E E E   E E E E S S E S S E
|-----------------|-----------------|-----------------|----------------------|
|-----------------|-----------------|-----------------|----------------------|
|-----------------|-----------------|-----------------|---7-7---7-7---7-7----|
|-4-4-4-4-4-4-4-4-|-4-4-4-4-4-4-4-4-|-----------------|----------------------|
|-----------------|-----------------|-5-5-5-5-5-5-5-5-|-5-----5-----5-----5--|
|-----------------|-----------------|-----------------|----------------------|


  E E E E E E E E   E E E E E E E E   E E E E E E E E   E E E E E E E E
|-----------------|-----------------|-----------------|------------------|
|-----------------|-----------------|-----------------|------------------|
|-2-2-2-2-2-2-2-2-|-2-2-2-2-2-2-2-2-|-----------------|------------------|
|-----------------|-----------------|-3-3-3-3-3-3-3-3-|-3-3-3-3-3-3-3-3--|
|-----------------|-----------------|-----------------|------------------|
|-----------------|-----------------|-----------------|------------------|


  E E E E E E E E   E E E E E E E E   E E E E E E E E   E E E E E E E E
|-----------------|-----------------|-----------------|------------------||
|-----------------|-----------------|-----------------|------------------||
|-----------------|-----------------|-----------------|---7-7---7---7----||
|-4-4-4-4-4-4-4-4-|-4-4-4-4-4-4-4-4-|-----------------|------------------||
|-----------------|-----------------|-5-5-5-5-5-5-5-5-|-5-----5---5---5--||
|-----------------|-----------------|-----------------|------------------||


   Outro
    E E E E E E E E   E E E E E E E E   E E E E E E E E   E E E E E E E E
||------------------|-----------------|-----------------|------------------||
||o-----------------|-----------------|-----------------|-----------------o||
||------------------|-----------------|-----------------|------------------||
||--4-4-2-4-4-4-4-4-|-4-----------2-4-|-4-4-2-4-4-4-4-4-|-4---------0-0-2--||
||o-----------------|-----------------|-----------------|---4-4-4-4-------o||
||------------------|---4-4-4-4-5-----|-----------------|------------------||


  >
  W          +W           +W           +W
|----------|------------|------------|--------|
|----------|------------|------------|--------|
|----------|------------|------------|--------|
|----------|------------|------------|--------|
|----------|------------|------------|--------|
|-2--------|-(2)--------|-(2)--------|-(2)----|


   >
  +W           +W           Wx2
|------------|------------|--------*|
|------------|------------|--------*|
|------------|------------|--------*|
|------------|------------|--------*|
|------------|------------|--------*|
|-(2)--------|-(2)--------|--------*|


Duration Legend
---------------
W - whole; H - half; Q - quarter; E - 8th; S - 16th; T - 32nd; X - 64th; a - acciaccatura
+ - note tied to previous; . - note dotted; .. - note double dotted
Uncapitalized letters represent notes that are staccato (1/2 duration)
Irregular groupings are notated above the duration line
Duration letters will always appear directly above the note/fret number it represents the
duration for.  Duration letters with no fret number below them represent rests.  Multi-
bar rests are notated in the form Wxn, where n is the number of bars to rest for.  Low
melody durations appear below the staff

Tablature Legend
----------------
 h   - hammer-on
 p   - pull-off
 b   - bend
 pb  - pre-bend
 r   - bend release (if no number after the r, then release immediately)
 /\  - slide into or out of (from/to "nowhere")
 s   - legato slide
 S   - shift slide
  - natural harmonic
[n]  - artificial harmonic
n(n) - tapped harmonic
 ~   - vibrato
 tr  - trill
 T   - tap
 TP  - trem. picking
 PM  - palm muting
\n/  - tremolo bar dip; n = amount to dip
 \n  - tremolo bar down
 n/  - tremolo bar up
/n\  - tremolo bar inverted dip
 =   - hold bend; also acts as connecting device for hammers/pulls
 <>  - volume swell (louder/softer)
 x   - on rhythm slash represents muted slash
 o   - on rhythm slash represents single note slash

Misc Legend
-----------
 |  - bar
||  - double bar
||o - repeat start
o|| - repeat end
*|  - double bar (ending)
 :  - bar (freetime)
 $  - Segno
 &  - Coda
Tempo markers -  = BPM(8/16=s8/s16), where s8 = swing 8ths, s16 = swing 16ths


***************************************************************************************
* Generated using Power Tab Editor by Brad Larsen - http://powertab.guitarnetwork.org *
***************************************************************************************
Comments