Dream Theater - Honor Thy Father Chords & Tabs

 

Honor Thy Father Chords & Tabs

Dream Theater Chords & Tabs

Version: 1 Type: Bass Tab 0 ratings
1 star 2 stars 3 stars 4 stars 5 stars
comments

Honor Thy Father Bass Tab

Drop D Tuning

Intro
|-------------|
|-------------|  x4
|-------------|
|-0-0-0-0-0-0-|

(2x)
|----------------------|---------------------|---------------------|
|----------------------|---------------------|---------------------|
|----------------------|---------------------|---------------------|
|--0-0-0-0-0-0-6-6-6-6-|-0-0-0-0-0-0-3-3-3-3-|-0-0-0-0-0-0-8-8-8-8-|

|----------------------|
|----------------------|
|--------------3-3-3-3-|
|--0-0-0-0-0-0---------|

(2x)
|-----------------------------------|
|-----------------------------------|
|-----------------------------------|
|--0---0---0---0---0------0-2/3-3-3-|


|-----------------------------------|
|-----------------------------------|
|-----------------------------------|
|--0---0---0---0---0------0-3/6-6-6-|


|-----------------------------------|
|-----------------------------------|
|-----------------------------------|
|--0---0---0---0---0------0-2/3-3-3-|

                              
|-----------------------------------|
|-----------------------------------|
|----------------/3-0-----0---------|
|--0---0---0---0--------5---3-1-----|

(2x)
|-----------------------------------|-----------------------------------|
|-----------------------------------|-----------------------------------|
|--7-5-7-------7-5-7----------------|--7-5-7----------------------------|
|--------0-3-0-------0-7-0-8-7-8-10-|--------0-3-0-8-7-8-0-3-0-7-5-7-10-|

|----------------------|
|----------------------|
|--------------3-3-3-3-|
|--0-0-0-0-0-0---------|

|-----------------------------------|
|-----------------------------------|
|-----------------------------------|
|--0---0---0---0---0------0-2/3-3-3-|


|-----------------------------------|
|-----------------------------------|
|-----------------------------------|
|--0---0---0---0---0------0-3/6-6-6-|


|-----------------------------------|
|-----------------------------------|
|-----------------------------------|
|--0---0---0---0---0------0-2/3-3-3-|

                              
|-----------------------------------|
|-----------------------------------|
|----------------/3-0-----0---------|
|--0---0---0---0--------5---3-1-----|

(2x)
|-----------------------------------|-----------------------------------|
|-----------------------------------|-----------------------------------|
|--7-5-7-------7-5-7----------------|--7-5-7----------------------------|
|--------0-3-0-------0-7-0-8-7-8-10-|--------0-3-0-8-7-8-0-3-0-7-5-7-10-|

|--------------------------------|
|--------------------------------|  x4
|--------------------------------|
|--0-7-0-8p7-0-5-0-7-0-2-0-3-0-5-|

Main Verse (x4)
|----------------|
|----------------|
|----------------|
|-333-333-333-33-|

Chorus (x4)
    |---------------------4x-----------------|   |---2x--|
|-------------------------|---------------------|---------|
|-------------------------|---------------------|---------|
|-------------------------|---------------------|---------|
|-0-7-0-6-0-3p2-0-7-0-2/3-|-0-7-0-6-0-3p2-0-7-0-|-2/3\2/3-|

Main Verse (x4)
|----------------|
|----------------|
|----------------|
|-333-333-333-33-|

|----------------------------------|
|----------------------------------|  x4
|----------------------------------|
|--0--7-0-8p7-0-5-0-7-0-2-0-3-0-5--|

Chorus (x4)
    |---------------------4x-----------------|   |---2x--|
|-------------------------|---------------------|---------|
|-------------------------|---------------------|---------|
|-------------------------|---------------------|---------|
|-0-7-0-6-0-3p2-0-7-0-2/3-|-0-7-0-6-0-3p2-0-7-0-|-2/3\2/3-|

4:48
|--------------|------------|-------------|-----------------------------|
|--------------|------------|-------10----|---------10p8p7--------------|
|--8-7-8-10-7-8|--8-7-8-10-7|-8-7-8----7-8|--7-8-10--------10p8p7-------|
|8-------------|8-----------|8------------|8----------------------10p8p7|
[ Tab from: http://www.guitartabs.cc/tabs/d/dream_theater/honor_thy_father_btab.html ]
|--------------|-----------|---------------|----------------------------|
|--------------|-----------|--------14-----|--10------------------------|
|--121012131012|1210121312-|--121012--1012-|----13\12-12131210101210-8--|
|12------------|-12--------|12-------------|12--------------------------|

Interlude Riff 1 (8x)
|-----------------------|-----------------------|-----------------------|
|-----------------------|-----------------------|-----------------------|
|-----------------------|-----------------------|-----------------------|
|3-2-0-3-2-0-0-0--0--0--|3-2-0-3-2-0-0-0--0--0--|3-2-0-3-2-0-0-0--0--0--|

|---------------------|
|---------------------|
|---------------------|
|---7--8--5--7--2--5--|

Interlude Riff 2 (4x)
|---------------------|---------------------|---------------------|
|---------------------|---------------------|---------------------|
|---------------------|---------------------|---------------------|
|-3-2-0-7-0-8-7-0-2-5-|-3-2-0-3-2-0-0-0-0-0-|-3-2-0-7-0-8-7-0-2-5-|

Interlude Riff 1 (12x over guitar solo 1)
|-----------------------|-----------------------|-----------------------|
|-----------------------|-----------------------|-----------------------|
|-----------------------|-----------------------|-----------------------|
|3-2-0-3-2-0-0-0--0--0--|3-2-0-3-2-0-0-0--0--0--|3-2-0-3-2-0-0-0--0--0--|

|---------------------|
|---------------------|
|---------------------|
|---7--8--5--7--2--5--|

|-------------|
|-------------|  x4
|-------------|
|-0-0-0-0-0-0-|

|-------------|
|-------------|
|-------------|
|-0-0-0-0-0-0-|

|-------------|
|-------------|
|-------------|
|-0-0-0-0-0-0-|

|-------------|
|-------------|
|-------------|
|-0-0-0-0-0-0-|

|-------------|
|-------------|
|-------------|
|-0-0-0-0-0-0-|

Riff 2
|----------------------|---------------------|---------------------|
|----------------------|---------------------|---------------------|  x2
|----------------------|---------------------|---------------------|
|--0-0-0-0-0-0-6-6-6-6-|-0-0-0-0-0-0-3-3-3-3-|-0-0-0-0-0-0-8-8-8-8-|

|----------------------|
|----------------------|
|--------------3-3-3-3-|
|--0-0-0-0-0-0---------|

|-----------------------------------|
|-----------------------------------|  x2
|-----------------------------------|
|--0---0---0---0---0------0-2/3-3-3-|


|-----------------------------------|
|-----------------------------------|
|-----------------------------------|
|--0---0---0---0---0------0-3/6-6-6-|


|-----------------------------------|
|-----------------------------------|
|-----------------------------------|
|--0---0---0---0---0------0-2/3-3-3-|

                              
|--------------------------------|
|--------------------------------|
|----------------/3-0-----0------|
|--0---0---0---0--------5---3-1--|

|--------------------------------|
|--------------------------------|  x4
|--------------------------------|
|--0-7-0-8p7-0-5-0-7-0-2-0-3-0-5-|


Chorus (x4)
    |---------------------4x-----------------|   |---2x--|
|-------------------------|---------------------|---------|
|-------------------------|---------------------|---------|
|-------------------------|---------------------|---------|
|-0-7-0-6-0-3p2-0-7-0-2/3-|-0-7-0-6-0-3p2-0-7-0-|-2/3\2/3-|

Outro
Riff 3 (8x)
|-----------------------------------|
|-----------------------------------|
|-----------------------------------|
|--0---0---0---0---0------0-2/3-3-3-|


|-----------------------------------|
|-----------------------------------|
|-----------------------------------|
|--0---0---0---0---0------0-3/6-6-6-|


|-----------------------------------|
|-----------------------------------|
|-----------------------------------|
|--0---0---0---0---0------0-2/3-3-3-|

                              
|-----------------------------------|
|-----------------------------------|
|----------------/3-0-----0---------|
|--0---0---0---0--------5---3-1-----|

Thanks, please rate it after you learn it.
Comments