Dream Theater - Hollow Years Chords & Tabs

 

Hollow Years Chords & Tabs

Dream Theater Chords & Tabs

Version: 1 Type: Bass Tab 0 ratings
1 star 2 stars 3 stars 4 stars 5 stars
comments

Hollow Years Bass Tab

 Intro
G|----------------------------------------------------------------------|
D|----------------------------------------------------------------------|
A|-5--5---3--3--------------1--1--3--3--5--5--------------5--5---3--3---|
E|---------------3---3---3--------------------5--5-5-5-5----------------|


G|-----------------------------------------|
D|-----------------------------------------|
A|------------1--1--3--3--5--5-------------|
E|-3---3---3--------------------5--5-5-5-6-|


  Verse 1
G|----------------------------------------------------------------------|
D|-------------------------------------------------------7--7~~---------|
A|-5----3---------1---3---5-------5----3---------1---3------------------|
E|-----------3---------------5--------------3---------------------------|


  Bridge
G|----------------------------------------------------------------------|
D|------------------------------------------------------5-7-------------|
A|-5----1----3--3-3--0--0---5-5---1-1---3-3-3--0-0-0--0--------5-5---1-1|
E|----------------------------------------------------------------------|

                
G|----------------------------------------------------------------------|
D|-----3-5\-------------------------------------------------------------|
A|-3-3------0---0---1-----1--------------------3------------------------|
E|----------------------------------------------------------------------|


  Chorus
G|----------------------------------------------------------------------|
D|-------------------0-----0-----------------------10/12~~--------------|
A|-------1--1--3--3----3-1---3-0-------1--1--3--3-----------------------|
E|-1--1--------------------------1--1-----------------------------------|

G|----------------------------------------------------------------------|
D|----------------------------------------------------------------------|
A|-------1--1--3-5-3-3-3-3--0--0---5---3-------1--1--3--3---------------|
E|-1--1-------------------------------------3---------------------------|

G|----------------------------------------------------------------------|
D|-------------------------------------------------/5~~5~---------------|
A|-----/5~~--1--1/3--3--3-----------/5~~--1--1--1-----------------------|
E|-1------------------------1--1--1-------------------------------------|


  Verse 2
G|-------------------------------------------------------------9-10-9---|
D|-------------------------------------------------------7--7~~-------7\|
A|-5----3---------1---3---5-------5----3---------1---3------------------|
E|-----------3---------------5--------------3---------------------------|

[ Tab from: http://www.guitartabs.cc/tabs/d/dream_theater/hollow_years_btab.html ]
-Repeat Bridge(2)

  Chorus
  "Once the stone...
G|----------------------------------------------------------|
D|-------------------------------------10/12~~--------------|
A|-------1--1--3--3--------1--1--3--3-----------------------|
E|-1--1--------------1--1-----------------------------------|

G|----------------------------------------------------------------------|
D|----------------------------------------------------------------------|
A|-------1--1--3-5-3-3-3-3--0--0---5---3-------1--1--3--3---------------|
E|-1--1-------------------------------------3---------------------------|


During Solo
G|----------------------------------------------------------------------|
D|----------------------------------------------------------------------|
A|-5--5---3--3--------------1--1--3--3--5--5--------------5--5---3--3---|
E|---------------3---3---3--------------------5--5-5-5-5----------------|


G|-----------------------------------------|
D|-----------------------------------------|
A|------------1--1--3--3--5--5--1--3--(5)--|
E|-3---3---3-------------------------------|



  Bridge(3)
G|----------------------------------------------------------------------|
D|-------------------------7/8\7-------------------------------5-7------|
A|-5----1----3--3-3--0--0--------8-5-5---1-1---3-3-3--0-0-0--0-------5-5|
E|----------------------------------------------------------------------|

G|----------2-----------------------------------------------------------|
D|------------3-2-------------------------------------------------------|
A|-1-1--3-3--------3-5--5--1-1--3-3--0-0--1-----1--------------------3--|
E|----------------------------------------------------------------------|

G|------3h5-5-5-5-5~~|
D|-------------------|
A|-3-3-3-------------|
E|-------------------|

  Chorus(3)
G|----------------------------------------------------------------------|
D|-------------------------------------12/14~~--------------------------|
A|-------3--3--5--5--------3--3--5--5-----------------------------------|
E|-3--3--------------3--3-----------------------------------------------|

G|----------------------------------------------------------------------|
D|----------------------------------------------------------------------|
A|-------3--3---5--5---2--2---7--7----5--5---4---3-----5----------------|
E|-3--3-----------------------------------------------------------------|

G|--------------------------------------------|
D|--------------------------------------------|  x4
A|----/7-7~~-3---5-5-----/7-7~~-3---3/7\5~~---|
E|-3-------------------3--------------------3-|

Thanks, please rate it after you learn it.
Comments