Dream Theater - Glass Prison Chords & Tabs

 

Glass Prison Chords & Tabs

Dream Theater Chords & Tabs

Version: 3 Type: Tab 0 ratings
1 star 2 stars 3 stars 4 stars 5 stars
comments

Glass Prison Tab

|--------------------------------|--------------------------------|
|--------------------------------|--------------------------------|
|--------------------------------|--------------------------------|
|--------------------------------|--------------------------------|
|--------5-------4---------------|----2-----------2---------------|
|---/7-------7-------5-------5---|3-------3---4-------4-------4---|
|0-----------------------0-------|------------------------3-------|


|--------------------------------|--------------------------------|
|--------------------------------|--------------------------------|
|--------------------------------|--------------------------------|
|--------------------------------|--------------------------------|
|--------5-------4---------------|----2-----------2-----------2---|
|---/7-------7-------5-------5---|3-------3---4-------4---5-------|
|0-----------------------0-------|--------------------------------|


|--------------------------------|--------------------------------|
|--------------------------------|--------------------------------|
|--------------------------------|--------------------------------|
|--------------------------------|--------------------------------|
|--------5-------4---------------|----2-----------2---------------|
|---/7-------7-------5-------5---|3-------3---4-------4-----------|
|0-----------------------0-------|------------------------3 p.h.~-|


|--------------------------------|--------------------------------|
|--------------------------------|--------------------------------|
|--------------------------------|--------------------------------|
|--------------------------------|--------------------------------|
|--------5-------4---------------|----2-----------2-----------2---|
|---/7-------7-------5-------5---|3-------3---4-------4---5-------|
|0-----------------------0-------|--------------------------------|

[ Tab from: http://www.guitartabs.cc/tabs/d/dream_theater/glass_prison_tab_ver_3.html ]
|--------------------------------|--------------------------------|
|--------------------------------|--------------------------------|
|--------------------------------|--------------------------------|
|--------------------------------|--------------------------------|
|--------5-------4---------------|----2-----------2---------------|
|---/7-------7-------5-------5---|3-------3---4-------4-------4---|
|0-----------------------0-------|------------------------3-------|


|--------------------------------|--------------------------------|
|--------------------------------|--------------------------------|
|--------------------------------|--------------------------------|
|--------------------------------|--------------------------------|
|--------9-------7---------------|----5-----------7-------4---5---|
|---/10------10------9-------9---|7-------7---7-------7-----------|
|0-----------------------0-------|--------------------------------|
-divisi
|--------------------------------|--------------------------------|
|--------------------------------|--------------------------------|
|--------------------------------|--------------------------------|
|--------------------------------|--------------------------------|
|--------5-------4---------------|----2-----------2-----------2---|
|---/7-------7-------5-------5---|3-------3---4-------4---5-------|
|0-----------------------0-------|--------------------------------|



|--------------------------------|--------------------------------|
|--------------------------------|--------------------------------|
|--------------------------------|--------------------------------|
|--------------------------------|----------------------------6-\-|
|--------9-------7---------------|----5-----------7-------5-------|
|---/10------10------9-------9---|7-------7---7-------7-----------|
|0-----------------------0-------|--------------------------------|
-                
|--------------------------------|--------------------------------|
|--------------------------------|--------------------------------|
|--------------------------------|--------------------------------|
|--------------------------------|--------------------------------|
|--------5-------4---------------|----2-----------2---------------|
|---/7-------7-------5-------5---|3-------3---4-------4-------4-\-|
|0-----------------------0-------|------------------------3-------|
Comments