Dream Theater - Fatal Tragedy Chords & Tabs

 

Fatal Tragedy Chords & Tabs

Dream Theater Chords & Tabs

Version: 1 Type: Tab 0 ratings
1 star 2 stars 3 stars 4 stars 5 stars
comments

Fatal Tragedy Tab

FATAL TRAGEDY
 by Dream Theater
Transcribed by bighabit69@iamwasted.com (silkmoth)

Listen to record for time changes.  Gtr I
|-----|
|-----|
|-----|
|-----|
|-----|
|-----|


 
                                                       
|--------6b7--|-6--------------|-----------------------|-------|
|-------------|----------------|-4--4-----------4------|-------|
|-4------3b4--|-3--------------|-4-----4-----4---------|-------|
|-2-----------|----------------|-4--------4------------|-------|
|--------1b2--|-1----x\--------|-2--------0------------|-------|
|-0-----------|------x\--------|-------------------3-5-|-[3]---|


 Verse

            PM|       ~        PM------|  ~~~            PM|
|-------------------|------------------------|--------------------|
|-------------------|------------------------|--------------------|
|-------------------|------------------------|--------------------|
|-------------------|--------------2-5-------|--------------------|
|-2-4-5-2---------2-|-1----(1)-1-4-----4-----|-2-4-5-2---------2--|
|-0-2-3-0---0-2-3---|--------------------[3]-|-0-2-3-0---0-2-3----|


                                         
  ~        PM------|  ~~~                                    PM|
|------------------------|-----------------------|-------------------|
|------------------------|-4--4-------4----------|-------------------|
|------------------------|-4----4---4------------|-------------------|
|--------------5-8-------|-4------4--------------|-------------------|
|-4----(4)-4-7-----7-----|-2------0--------------|-2-4-5-2---------2-|
|--------------------[6]-|--------------3-5-[3]--|-0-2-3-0---0-2-3---|


              PM------|  ~~~            PM|                   PM----------|
|---------------------------|-------------------|-----------------------------|
|---------------------------|-------------------|-----------------------------|
|---------------------------|-------------------|-----------------------------|
|-----------------2-5-------|-------------------|-----------------5-8-8-------|
|-1tr2----(1)-1-4-----4-----|-----5-2---------2-|-4tr5----(4)-4-7-------7-----|
|-----------------------[3]-|-0-2-3-0---0-2-3---|-------------------------6-0-|


                                                    ~~~~~~~~
|------------------|----------------------|------------------------|
|-4--4-------4-----|-------------4b5==(4)r|=(4)-----7---(7)-4b5r===|
|-4----4---4-------|-------------4b6==(4)r|=(4)-4---8---(8)-4b6r===|
|-4------4---------|-----------2----------|-----4-4----------------|
|-2------0---------|-------3-5-2----------|-------6----------------|
|--------------3-5-|-[3]---2-3-0----------|------------------------|


|-------------|----------|----------------|
|-2--4--5--7--|-5--------|-5------(5)-----|
|-------------|-4--------|-3------(3)-----|
|-2--4--6--8--|-2--------|-2------(2)-----|
|-------------|-2--------|-2------(2)-----|
|-------------|-0--------|-0------(0)-12\-|


    PM        PM                      PM|
|---------------------|-------------------|
|-----5---5-----5-5-5-|-5---5---5---5-----|
|-----4-4---4---4-4-4-|-3-3---3-3-3-------|
|-----2---------2-2-2-|-2-------2---------|
|---------------------|-------------------|
|-0-0---------0-------|---------------0-1-|


 Chorus
      PM|     PM|            PM    PM|
|-----------------|--------------------|--------------------|
|-----------------|--------------------|--------------------|
|-----------------|--------------------|--------------------|
|-4-------7-------|-11--(11)-----------|-9----9-------------|
|-4---4-6-7---7-9-|-11--(11)---7-----7-|-9----9-/4-2-4------|
|-2---2-4-5---5-7-|--9---(9)-0-4---4-5-|-7----7--------4-0--|


                                  

     PM|    PM|        PM
|----------------------------------|--------------|
|----------------------------------|--------------|
|----------------------------------|---------4----|
|-4------7------11--11---------7---|-2-1-----4----|
|-4--4-6-7--7-9-11--11---7-7---7---|-----2---2----|
|-2--2-4-5--5-7--9---9-0-4-4-0-5---|-------4-2----|


 Breakdown
  

                                              ~~
|--------------|-----|--------------|--------15--|
|--------------|-----|--------------|-17b19--12--|
|--------------|-----|--------------|-12b14------|
|--------------|-----|----------5-9-|------------|
|----------6-9-|-----|-6-7-9-7------|------------|
|-5-7-8-7------|-----|--------------|------------|                                               ~~
|--------------|-----|--------------|-14tr15--12--|
|--------------|-----|--------------|-10tr12---8--|
|--------------|-----|--------------|-------------|
|--------------|-----|----------5-9-|-------------|
|----------6-9-|-----|-6-7-9-7------|-------------|
|-5-7-8-7------|-----|--------------|-------------|                  PM----------------------------|
|-----------------------------|----------------------|
|-----------------------------|----------------------|
|-----------------------------|----------------------|
|-7-------5-2-----------------|----------------------|
|---7---------2---------2-----|-2-2-2-2---2-2-2-2----|
|-----8-5-------3-2-3-5---3-2-|-0-0-0-0---0-0-0-0----|


    PM----------------------------------|     PM--------------|
|---------------------|-------------------|----------------------|
|---------------------|-------------------|----------------------|
|---------------------|-------------------|----------------------|
|---------------------|-------------------|----------------------|
|---2-2-2-2-2-2-2-2-2-|-2-2-2-2---2-2-2-2-|---2-2-2-2-2-2-2-2-2--|
|---0-0-0-0-0-0-0-0-0-|-0-0-0-0---0-0-0-0-|---0-0-0-0-0-0-0-0-0--|


   Verse 2
    PM--------------|     PM--------------|
                                             4x
||--------------------|----------------------||
||o-------------------|---------------------o||
||--------------------|----------------------||
||--------------------|----------------------||
||o-2-2-2-2---2-2-2-2-|---2-2-2-2-2-2-2-2-2-o||
||--0-0-0-0---0-0-0-0-|---0-0-0-0-0-0-0-0-0--||


    PM--|         PM----|     PM--------------|
                                                 4x
||------------------------|----------------------||
||o-----------------------|---------------------o||
||--------9--(9)\---------|----------------------||
||--------9--(9)\---------|----------------------||
||o-2-2-2-7--(7)\-2-2-2-2-|---2-2-2-2-2-2-2-2-2-o||
||--0-0-0---------0-0-0-0-|---0-0-0-0-0-0-0-0-0--||


|-------------------|-------------------|-------------------|
|-------------------|-------------------|-------------------|
|-------------------|-------------------|---------------0-2-|
|---------1-----2-4-|-----2-1-----------|---------1---------|
|-2-3-0-2---2-2-----|-2-2-----2-3-2-0-2-|-0-3-0-2---2-2-----|
|-------------------|-------------------|-------------------|


|-------------------|-------------------|-------------------|
|-------------------|-------------------|-------------------|
|-------------------|---------------2-4-|-------------------|
|-----2-1-----------|---------1---------|-----2-1-----------|
|-2-2-----2-3-2-0-2-|---3-0-2---2-2-----|-2-2-----2-3-2-0-2-|
|-------------------|-3-----------------|-------------------|


|---------------------|-------------------------------|------------------------|
|---------------------|-------------------------------|------------------------|
|---------------------|-------------------------------|-------4-----2----------|
|---------------1-4-2-|-----------------2-------2-----|-------------------5-4--|
|---------0-1-2-------|---7-6-5-7-4-3-2---------------|-2-2-2---2-2---2-2------|
|-0-0-2-3-------------|-0-----------------6-5-3---3-5-|------------------------|


|-----------------------|-----------------|-----------------|
|-----5-4---------------|-----------------|-----------------|
|---------4-5-4-5-4-----|-----------------|-----------------|
|-------------------7-5-|-4-6-7-----------|-----------------|
|-2-2-------------------|-------4-3---2-0-|-------4-3-2-----|
|-----------------------|-----------2-----|-2-0-2-------2-3-|                            PM   PM------|   PM--|     PM   PM------|   PM|
|----------|------------|--------------------------|------------------------|
|----------|-5----------|-----5------------5-------|-----5------------5-----|
|----------|-3----------|-----4------------4-------|-----3------------3-----|
|-2--------|-2----------|-----2------------2-------|-----2------------2-----|
|-2--------|------x\----|--------------------------|------------------------|
|-0--------|------x\----|-0-0----0-0-0-0-0---0-0-0-|-0-0----0-0-0-0-0---0-1-|


 Chorus
 
         PM|          PM|                PM
|------------|------------|----------------|
|------------|------------|----------------|
|------------|------------|----------------|
|-4----------|-7----------|-11------(11)---|
|-4------4-6-|-7------7-9-|-11------(11)---|
|-2------2-4-|-5------5-7-|--9-------(9)-0-|


         PM|           PM
|------------|-----------|----------------|
|------------|-----------|----------------|
|------------|-----------|----------------|
|------------|-9---------|-9--------------|
|-7--------7-|-9---------|-9---/4-2-4-----|
|-4------4-5-|-7-------0-|-7----------4-0-|          PM|         PM|              PM                      ~
|-------------------------|----------------------|------------------|
|-------------------------|----------------------|------------------|
|-------------------------|----------------------|------------------|
|-4---(4)-----7---(7)-----|-11---(11)------------|-7------11--------|
|-4---(4)-4-6-7---(7)-7-9-|-11---(11)----7---7---|-7------11--------|
|-2---(2)-2-4-5---(5)-5-7-|--9----(9)--0-4---4---|-5-------9---4----|                                   ~~~~~~~~~~~
|--------------|-------------|----------|--------|
|--------------|-------------|----------|--------|
|--------------|-------------|----------|--------|
|-9------(9)---|-9-----------|----------|--------|
|-9------(9)---|-9-----------|----------|--------|
|-7------(7)-7-|-7------12\--|-0-2-3----|-(3)----|


   Bridge
||--------------------------|-------------------------|
||o-------------------------|-------------------------|
||--------------------------|-------------------------|
||--------------------------|-------------------------|
||o-------------------------|-------------------------|
||--0-2-3-0-0-0-0-2-3-0-0-0-|-0-2-3-0-0-0-0-2-3-0-0-0-|


                                                     3x
|-------------------------|--------------------------||
|-------------------------|-------------------------o||
|-------------------------|--------------------------||
|-------------------------|--------------------------||
|-------------------------|-------5-----4-----3---2-o||
|-0-2-3-0-0-0-0-2-3-0-0-0-|-0-2-3---0-3---0-3---3----||                                                4x
||----------------------------------------------||
||o--------------------------------------------o||
||----------------------------------------------||
||--2-2-2-2--2-2-2-2--2-2-2-2--2-2-2-2--2-2-2---||
||o--------------------------------------------o||
||----------------------------------------------||


                                                4x
||----------------------------------------------||
||o--------------------------------------------o||
||----------------------------------------------||
||----------------------------------------------||
||o--------------------------------------------o||
||--0-0-0-0--0-0-0-0--0-0-0-0--0-0-0-0--0-0-0---||||-------------------|-------------------||
||o------------------|------------------o||
||-------------------|-------------------||
||-------------------|-------------------||
||o------------------|------------------o||
||--2-2---2-2-2-2----|-2-2---2-2-2-2-----||


 Guitar Solo
|-------------------------------------------------|
|-------------------------------------------------|
|---------------4-5-7-5-4---------------4-5-7-5-4-|
|---4-5-7-5-4---------------4-5-7-5-4-------------|
|-7-----------7-----------7-----------7-----------|
|-------------------------------------------------|


|--------------------------------------------------|
|---------------------------------------5-7-8-7-5--|
|---------------4-5-7-5-4---5-7-9-7-5--------------|
|---4-5-7-5-4-------------9-----------9------------|
|-7-----------7------------------------------------|
|--------------------------------------------------|


|----------------7-8-10-8-7----------------------12-------|
|---7-8-10-8-7----------------7-8-10-8-7---13-15----15-13-|
|-9------------9------------9------------9----------------|
|---------------------------------------------------------|
|---------------------------------------------------------|
|---------------------------------------------------------|

[ Tab from: http://www.guitartabs.cc/tabs/d/dream_theater/fatal_tragedy_tab.html ]
|-----------------12-14-15-14-12----14-15-17-15-14----15-17-19-17-15--|
|---7-8-10-8-7-15----------------17----------------19-----------------|
|-9-------------------------------------------------------------------|
|---------------------------------------------------------------------|
|---------------------------------------------------------------------|
|---------------------------------------------------------------------|


                                             ~~
|----14-------14-------15-18-15-14-------14----|
|-19----18b19----18b19-------------18-17----17-|
|----------------------------------------------|
|----------------------------------------------|
|----------------------------------------------|
|----------------------------------------------|


|----14-------14-------15-18-16-14-------14S21-|
|-19----18b19----18b19-------------18-17-------|
|----------------------------------------------|
|----------------------------------------------|
|----------------------------------------------|
|----------------------------------------------|


|-(21)----------------------------------------------------------------------|
|------19-19-19-19-20-19-0-17-17-17-17-19-17-0-15-15-15-15-17-15-0-14-14-14-|
|---------------------------------------------------------------------------|
|---------------------------------------------------------------------------|
|---------------------------------------------------------------------------|
|---------------------------------------------------------------------------|


|--------------------------------------------------------------------------|
|-14-15-15-0-12-12-12-12-14-12-0-11-11-11-11-12-11-0-8-8-8-8-11-8-0-7-8-7--|
|--------------------------------------------------------------------------|
|--------------------------------------------------------------------------|
|--------------------------------------------------------------------------|
|--------------------------------------------------------------------------|


  ~     ~~~~~~~~~~~
|------------------------|----------------------------------|
|-----7-8-(8)--(8)-7---7-|-8-7---7--------------------------|
|-9------------------9---|-----9---9-7---7------------------|
|------------------------|-------------9---7-5---7---5-4----|
|------------------------|---------------------7---7-----5--|
|------------------------|----------------------------------|


|---------------------7-10-8-10-8-7------||
|-------------------8---------------10-8-||
|-----4-7-5-4---7-9----------------------||
|---5---------9--------------------------||
|-7--------------------------------------||
|----------------------------------------||


|-----------------7-9-7-6-7-9-7-6------------|
|-7-8-7-6-7-8-7-6-----------------7-8-7-6-7--|
|--------------------------------------------|
|--------------------------------------------|
|--------------------------------------------|
|--------------------------------------------|


|-------9-10-9-7-9-10-9-7-----------------10-12-10-|
|-8-7-6-------------------7-8-7-6-7-8-7-6----------|
|--------------------------------------------------|
|--------------------------------------------------|
|--------------------------------------------------|
|--------------------------------------------------|


|-9-10-12-10-9-14-15-14-13-14-15-14-13-----------------------|
|------------------------------------------------------------|
|--------------------------------------11-12-11-10-----------|
|------------------------------------------------------------|
|--------------------------------------------------9-10-9-8--|
|------------------------------------------------------------|


|----------------------------------------|
|----------------------------------12-12-|
|-------------------11-11-11-11-11-------|
|-------9-9-9-9-9-9----------------------|
|-7-7-7----------------------------------|
|----------------------------------------|


|----------14-14-14----------19-19-19-------20-20-|
|-12-12-12----------17-17-17----------19-19-------|
|-------------------------------------------------|
|-------------------------------------------------|
|-------------------------------------------------|
|-------------------------------------------------|


|-21-22-21-19-------------------------------------------------------|
|-------------23-20-19-23-20-19-------------------------------------|
|-------------------------------21-19-18-21-19-18-16-18-19-21-19-18-|
|-------------------------------------------------------------------|
|-------------------------------------------------------------------|
|-------------------------------------------------------------------|


|-------------------------------------------14-18-21-18----------------------|
|----------------------------------------14-------------19-------------------|
|-------------------------------------15-------------------18----------------|
|-21-20-17-------------------------16-------------------------20-------------|
|----------21-19-17-------------16-------------------------------21----------|
|-------------------21-19-18-14-------------------------------------21-18-14-|


|----------------------------------------------17-19-20S24--||
|-------------------------------------17-19-20--------------||
|----------------------------14-16-17-----------------------||
|-------------------14-16-17--------------------------------||
|----------12-14-15-----------------------------------------||
|-12-14-15--------------------------------------------------||


|-------14-------17-14----14-------14-------19-17----17---|
|-17b19----17-14-------17----17b19----17-14-------19------|
|---------------------------------------------------------|
|---------------------------------------------------------|
|---------------------------------------------------------|
|---------------------------------------------------------|


|-19-20-19-17-20-19-------17-------------------------|
|-------------------19-17----19-17-16-19-17-16-------|
|----------------------------------------------17----|
|-------------------------------------------------19-|
|----------------------------------------------------|
|----------------------------------------------------|


|-7-8-7-5-8-7-----5-----------------|
|-------------7-5---7-5-4-7-5-4-----|
|-------------------------------5---|
|---------------------------------7-|
|-----------------------------------|
|-----------------------------------|


|------------|------------|
|-----0------|-----0------|
|-4----------|-4----------|
|-4----------|-4----------|
|-2--------2-|-2--------2-|
|------------|------------|


 Synth Solo
|-------------------------|------------------|---------------------------|
|-------------------------|------------------|---------------------------|
|-------------------------|------------------|---------------------------|
|-------------------------|------------------|---------------------------|
|-------5-----4-----3---2-|------------------|---------------------------|
|-0-2-3---0-3---0-3---3---|-2-2---2-2-2-2----|-0-2-3-0-0-0-0-2-3-0-0-0---|


|-------------------------|------------------|------------------|
|-------------------------|------------------|------------------|
|-------------------------|------------------|------------------|
|-------------------------|------------------|------------------|
|-------5-----4-----3---2-|------------------|------------------|
|-0-2-3---0-3---0-3---3---|-2-2---2-2-2-2----|-2-2---2-2-2-2----|


|-------------------------|-------------------------|--------------------------|
|-------------------------|-------------------------|--------------------------|
|-------------------------|-------------------------|--------------------------|
|-------------------------|-------------------------|--------------------------|
|-------------------------|-------------------------|-------5-----4-----3---2--|
|-0-2-3-0-0-0-0-2-3-0-0-0-|-0-2-3-0-0-0-0-2-3-0-0-0-|-0-2-3---0-3---0-3---3----|


|------------------|------------------|------------------|
|------------------|------------------|------------------|
|------------------|------------------|------------------|
|------------------|------------------|------------------|
|------------------|------------------|------------------|
|-2-2---2-2-2-2----|-2-2---2-2-2-2----|-2-2---2-2-2-2----|


|-------------------------|-------------------------|--------------------------|
|-------------------------|-------------------------|--------------------------|
|-------------------------|-------------------------|--------------------------|
|-------------------------|-------------------------|--------------------------|
|-------------------------|-------------------------|--------------------------|
|-0-2-3-0-0-0-0-2-3-0-0-0-|-0-2-3-0-0-0-0-2-3-0-0-0-|-0-2-3-0-0-0-0-2-3-0-0-0--|


|-------------------------|------------------|------------------|
|-------------------------|------------------|------------------|
|-------------------------|------------------|------------------|
|-------------------------|------------------|------------------|
|-------5-----4-----3---2-|------------------|------------------|
|-0-2-3---0-3---0-3---3---|-2-2---2-2-2-2----|-2-2---2-2-2-2----|


                                          PM--|   PM--|
|------------------|------------------|-------------------------|
|------------------|------------------|-------------------------|
|------------------|------------------|---------4-------2-4---2-|
|------------------|------------------|---------------------5---|
|------------------|------------------|-2-2-2-2---2-2-2---------|
|-2-2---2-2-2-2----|-2-2---2-2-2-2----|-------------------------|


                                                         
    PM--|   PM--|
|-------------------------|---------------------------------|------|
|-------------------------|---------------------------------|------|
|---------4---------2-----|-------------2-5-4-5-2-4---2-----|------|
|-----------------5---4-5-|-2-1-----1-4-------------5---4-5-|-2----|
|-2-2-2-2---2-2-2---------|-----3-2-------------------------|------|
|-------------------------|---------------------------------|------|


   Outro

||-----------------------------------------|
||o-13-12-0-16-0-0-17-0-0-19-0-0-20-0-22-0-|
||-----------------------------------------|
||-----------------------------------------|
||o----------------------------------------|
||-----------------------------------------|


|---------------------------------------|
|-24-0-0-22-0-0-20-0-0-19-0-0-17-0-16-0-|
|---------------------------------------|
|---------------------------------------|
|---------------------------------------|
|---------------------------------------|


|----------------------------------------|
|-13-12-0-16-0-0-17-0-0-19-0-0-20-0-22-0-|
|----------------------------------------|
|----------------------------------------|
|----------------------------------------|
|----------------------------------------|


|-----------------------------------------|
|-24-0-0-22-0-0-20-0-0-19-0-0-17-0-16-0---|
|-----------------------------------------|
|-----------------------------------------|
|-----------------------------------------|
|-----------------------------------------|


|------------------------------------|-------------------------------------|
|-5-0-0-7-0-0-8-0-0-10-0-0-12-0-16-0-|-17-0-0-16-0-0-13-0-0-12-0-0-8-0-7-0-|
|------------------------------------|-------------------------------------|
|------------------------------------|-------------------------------------|
|------------------------------------|-------------------------------------|
|------------------------------------|-------------------------------------|


|------------------------------------|--------------------------------------||
|-5-0-0-7-0-0-8-0-0-10-0-0-12-0-16-0-|-17-0-0-16-0-0-13-0-0-12-0-0-8-0-7-0-o||
|------------------------------------|--------------------------------------||
|------------------------------------|--------------------------------------||
|------------------------------------|-------------------------------------o||
|------------------------------------|--------------------------------------||


|-8-7-0-10-0-0-12-0-0-14-0-0-15-0-17-0-|-19-0-0-17-0-0-15-0-0-14-0-0-12-0-10-0-|
|--------------------------------------|---------------------------------------|
|--------------------------------------|---------------------------------------|
|--------------------------------------|---------------------------------------|
|--------------------------------------|---------------------------------------|
|--------------------------------------|---------------------------------------|


|-8-7-0-10-0-0-12-0-0-14-0-0-15-0-17-0-|
|--------------------------------------|
|--------------------------------------|
|--------------------------------------|
|--------------------------------------|
|--------------------------------------|


|-22-0-0-20-0-0-19-0-0-17-0-0-15-0-14-0---|
|-----------------------------------------|
|-----------------------------------------|
|-----------------------------------------|
|-----------------------------------------|
|-----------------------------------------|


                                           3x
||--24-0-0-24-0-0-24-0-0-24-0-0-24-0-24-0--||
||o---------------------------------------o||
||-----------------------------------------||
||-----------------------------------------||
||o---------------------------------------o||
||-----------------------------------------||


      ~
|--------|------*|
|--------|------*|
|--------|------*|
|--------|-2----*|
|--------|-2----*|
|-0-2-3--|-0----*|
Comments