Dream Theater - Endless Sacrifice Chords & Tabs

 

Endless Sacrifice Chords & Tabs

Dream Theater Chords & Tabs

Version: 2 Type: Tab 0 ratings
1 star 2 stars 3 stars 4 stars 5 stars
comments

Endless Sacrifice Tab

Beginning
e----------------------------------------------------------------------
b----------------------------------------------------------------------
g----------------------------------------------------------------------
d-0---0-2-3-2-0-----0-3-0---0---2-0------------------------------------
a---0-----------0-1-------2---0----------------------------------------
e----------------------------------------------------------------------


e----------------------------------------------------------------------
b----------------------------------------------------------------------
g----------------------------------------------------------------------
d-0---0-2-3-2-0-----0-3-0-----------------0----------------------------
a---0-----------0-1---------0-3-0---3-1-0------------------------------
e-------------------------1-------0------------------------------------


e----------------------------------------------------------------------
b----------------------------------------------------------------------
g----------------------------------------------------------------------
d-0---0-2-3-2-0-----0-3-0----2-3-2-------------------------------------
a---0-----------0-1-------/3-------------------------------------------
e----------------------------------------------------------------------


e----------------------------------------------------------------------
b----------------------------------------------------------------------
g----------------------------------------------------------------------
d-0---0-2-3-2-0-----0-3-0-------------5--------------------------------
a---0-----------0-1---------0-3-0---0---1-3----------------------------
e-------------------------1-------3------------------------------------

now this might be on keyboard, but its fine on guitar as well.
e---------------------------------1-0---------------------1-3-5-0------
b---------1-3-----------------1-3-----3-1-------------1-3---------3-1--
g-2-0-2-3-----2-0-2-------2-3-------------2-3-2-0---0------------------
d-------------------0-2-3-------------------------3--------------------
a----------------------------------------------------------------------
e----------------------------------------------------------------------


e----0-----------------------------------------------------------------
b--3---3---------------------------------------------------------------
g----------------------------------------------------------------------
d---------------------------------------------------------------------
a----------------------------------------------------------------------
e----------------------------------------------------------------------


pre-chorus 
e----------------------------------------------------------------------
b----------------------------------------------------------------------
g----------------------------------------------------------------------
d-0---0-2-3-2-0-----0-3-0---0---2-0------------------------------------
a---0-----------0-1-------2---0----------------------------------------
e----------------------------------------------------------------------








e----------------------------------------------------------------------
b----------------------------------------------------------------------
g----------------------------------------------------------------------
d-0---0-2-3-2-0-----0-3-0-----------------0----------------------------
a---0-----------0-1---------0-3-0---3-1-0------------------------------
e-------------------------1-------0------------------------------------

[ Tab from: http://www.guitartabs.cc/tabs/d/dream_theater/endless_sacrifice_tab_ver_2.html ]
e----------------------------------------------------------------------
b----------------------------------------------------------------------
g----------------------------------------------------------------------
d-0---0-2-3-2-0-----0-3-0----2-3-2-------------------------------------
a---0-----------0-1-------/3-------------------------------------------
e----------------------------------------------------------------------


e----------------------------------------------------------------------
b----------------------------------------------------------------------
g----------------------------------------------------------------------
d-0---0-2-3-2-0-----0-3-0-------------5--------------------------------
a---0-----------0-1---------0-3-0---0---1-3----------------------------
e-------------------------1-------3------------------------------------


e----------------------------------------------------------------------
b----------------------------------------------------------------------
g----------------------------------------------------------------------
d-0---0-2-3-2-0-----0-3-0---0---2-0------------------------------------
a---0-----------0-1-------2---0----------------------------------------
e----------------------------------------------------------------------


e----------------------------------------------------------------------
b----------------------------------------------------------------------
g----------------------------------------------------------------------
d-0---0-2-3-2-0-----0-3-0-----------------0----------------------------
a---0-----------0-1---------0-3-0---3-1-0------------------------------
e-------------------------1-------0------------------------------------


e----------------------------------------------------------------------
b----------------------------------------------------------------------
g----------------------------------------------------------------------
d-0---0-2-3-2-0-----0-3-0----2-3-2-------------------------------------
a---0-----------0-1-------/3-------------------------------------------
e----------------------------------------------------------------------


e----------------------------------------------------------------------
b----------------------------------------------------------------------
g----------------------------------------------------------------------
d-0---0-2-3-2-0-----0-3-0-------------5--------------------------------
a---0-----------0-1---------0-3-0---0---1-3----------------------------
e-------------------------1-------3------------------------------------















string higher*
e----------------------------------------------------------------------
b----------------------------------------------------------------------
g-0---0-2-3-2-0-----3-2-3---2-3-2--------------------------------------
d---0-----------0-1-------3--------------------------------------------
a----------------------------------------------------------------------
e----------------------------------------------------------------------


e----------------------------------------------------------------------
b-----------------------------8----------------------------------------
g-0---0-2-3-2-0-----0-8-7-5-7-----0------------------------------------
d---0-----------0-1-------------0--------------------------------------
a----------------------------------------------------------------------
e----------------------------------------------------------------------


e----------------------------------------------------------------------
b----------------------------------------------------------------------
g---0-2-3-2-0-----3-2-3----2-3-2---------------------------------------
d-0----------0-1-------/3----------------------------------------------
a----------------------------------------------------------------------
e----------------------------------------------------------------------


e----------------------------------------------------------------------
b---0-2-3-2-0-----0-3-0------------------------------------------------
g-0-----------0-1------------------------------------------------------
d-------------------------0-3-0---3-1-0-----0--------------------------
a-----------------------1-------0---------0----------------------------
e---------------------------------------1------------------------------
Comments