Dream Theater - Beyond This Life Chords & Tabs

 

Beyond This Life Chords & Tabs

Dream Theater Chords & Tabs

Version: 7 Type: Tab

Beyond This Life Tab

e|--------------------------------------------------------------|
B|----------------------------------------------0---------------|
G|----------------------------------0---1---3------1----1-------|
D|--------------------------------------------------------------|
A|---2----------2---------2--------3--2---1---0-------2---------|
E|*-4---3--2--4----3--2--4----3--2-----------------4-------3--2-|

e|---------------------------------------------------------------------|
B|---------------------------------------------------------------------|
G|--1------1-----1---------1------1-------1-,--------------------------|
D|---------------------------------------------------------------------|
A|------------2-----------------2------------10-10-10-9-9-9-8-8-7-7----|
E|-----4-------------3--2-----4------3--2----8--8--8--7-7-7-6-6-5-5----|

e|---------------------------------------------------------------|
B|-15-16-12-15--12-----12-15--12-15-16-12-15---12----------------|
G|------------16--15-16-----16--------------16---15-16-12-15--12-|
D|----------------------------------------------------------17---|
A|---------------------------------------------------------------|
E|---------------------------------------------------------------|

e|----------------------------------------------------------------|
B|---------------------12-15--12-15-16-12-15--12-----12-15--12-15-|
G|------12-15--12-15-16-----16--------------16--15-16-----16------|
D|-16-17-----17---------------------------------------------------|
A|----------------------------------------------------------------|
E|----------------------------------------------------------------|

e|---13-14--13-14-18-13-14--13-16-12--16--12-17-13--17--13--14-|
B|-16-----16--------------16--------13--13--------14--14--15---|
G|-------------------------------------------------------------|
D|-------------------------------------------------------------|
A|-------------------------------------------------------------|
E|-------------------------------------------------------------|

e|-18-14-19-15--15------------------------------------------------|
B|------------16--18-19-15-18--15-----15-18--15-18-19-15-18--15---|
G|---------------------------19--18-19-----19--------------19--18-|
D|----------------------------------------------------------------|
A|----------------------------------------------------------------|
E|----------------------------------------------------------------|
[ Tab from: http://www.guitartabs.cc/tabs/d/dream_theater/beyond_this_life_tab_ver_7.html ]
e|------------------------------------------------------------------|
B|--------------------------------15-18--15-18-19-15-18-15-16-12-15-|
G|19-15-18--15-----15-18-16--18-19-----19---------------------------|
D|--------20--19-20--------21---------------------------------------|
A|------------------------------------------------------------------|
E|------------------------------------------------------------------|

e|------------------------------------------------------------------|
B|----12-----12-15--12-15-16-12-15--12------------------------------|
G|-16---15-16-----16--------------16--15-16-12-15--12-----12-15--12-|
D|-----------------------------------------------17--16-17-----17---|
A|------------------------------------------------------------------|
E|------------------------------------------------------------------|

e|---------------------------------------------------16-17--16-17-|
B|------12-15--12-15-16-12-15--15-----15-18--15-18-19-----19------|
G|-15-16-----16--------------19--18-19-----19---------------------|
D|----------------------------------------------------------------|
A|----------------------------------------------------------------|
E|----------------------------------------------------------------|


e|-21-16-17--16-19-15--19--15-20-16--20--16--17-21-17-22-18--18-|
B|---------19--------16--16--------17--17--18--------------19---|
G|--------------------------------------------------------------|
D|--------------------------------------------------------------|
A|--------------------------------------------------------------|
E|--------------------------------------------------------------|

e|-------------------------13-14--13-14-18-13-14--13-16-12--16---|
B|---12-----12-15--12-15-16-----16--------------16--------13--13-|
G|-16--15-16-----16----------------------------------------------|
D|---------------------------------------------------------------|
A|---------------------------------------------------------------|
E|---------------------------------------------------------------|

e|-12-17-13--17--13--14-18-14-19-15--15-|
B|---------14--14--15--------------16---|
G|--------------------------------------|
D|--------------------------------------|
A|--------------------------------------|
E|--------------------------------------|

Ok,that's it.It's the 1st solo.There are no explanations.Just frome the * up to , play 
a clean tone. Any problems e-mail me.(kostasmartin@yahoo.gr)