Dream Theater - Answer Lies Within Chords & Tabs

 

Answer Lies Within Chords & Tabs

Dream Theater Chords & Tabs

Version: 1 Type: Bass Tab 0 ratings
1 star 2 stars 3 stars 4 stars 5 stars
comments

Answer Lies Within Bass Tab

   
Band- Dream Theater
Song- The Answer Lies Within

Gtr I (B E A D G C) - 'John Myung RBXJM2'

  Bells/Piano/VChorus in Pre-Verse
  Q=71
 4/4
  Gtr I
  Wx16          Wx12
|-------------|---------|
|-------------|---------|
|-------------|---------|
|-------------|---------|
|-------------|---------|
|-------------|---------|


 Verse #1/Band Enters
  H    E Q.     H    +H       Q.   S S E Q.     H    E Q  +E
|-------------|-------------|-----------------|----------------|
|-------------|-------------|------8----------|----------------|
|-------------|-3----(3)----|--------8--------|----------------|
|-------------|-------------|-6--------6-6----|----------------|
|-3----3-3----|-------------|-----------------|-6----6-6--(6)\-|
|-------------|-------------|-----------------|----------------|


  H    E Q.     H    +H       Q.   S S E Q.     H    E Q  +E
|-------------|-------------|-----------------|----------------|
|-------------|-------------|------8----------|----------------|
|-5----5-5----|-3----(3)----|--------8--------|------8-8--(8)\-|
|-------------|-------------|-6--------6-6----|----------------|
|-------------|-------------|-----------------|-6--------------|
|-------------|-------------|-----------------|----------------|


  H    E Q.     H    H      Q.   S S E Q.     H    E E Q
|-------------|-----------|-----------------|-------------|
|-------------|-----------|------8----------|-------------|
|-5----5-5----|-3----3----|--------8--------|-------------|
|-------------|-----------|-6--------6-6----|-1----1-1-0--|
|-------------|-----------|-----------------|-------------|
|-------------|-----------|-----------------|-------------|


  H    E Q.     H    E Q.     H    E Q.     Q.   E H
|-------------|-------------|-------------|-------------|
|-------------|-------------|-------------|-------------|
|-5----5-5----|-3----3-3----|-------------|-------------|
|-------------|-------------|-6----3-3----|-5-----------|
|-------------|-------------|-------------|------5------|
|-------------|-------------|-------------|--------3----|


 Chorus #1
  H    H      H    H      H    H      H    H
|-----------|-----------|-----------|-----------|
|-----------|-----------|-----------|-----------|
|-1---------|-----------|-1---------|-----------|
|------3----|-1---------|-----------|-1----5----|
|-----------|------3----|------4----|-----------|
|-----------|-----------|-----------|-----------|


  H    H      Q  Q  Q  +Q     H    E Q  S S
|-----------|---------------|---------------|
|-----------|---------------|-----------8---|
|-1---------|----4--5--(5)--|-------------8-|
|------3----|-5-------------|-6----6-6------|
|-----------|---------------|---------------|
|-----------|---------------|---------------|


  H    E E Q     H    E Q  E   E E E E E E E E
|--------------|-------------|-----------------|
|------8-8-----|-----------3-|-----------------|
|--------------|-------------|-----------------|
|-6--------6\--|-1----1-1----|-1-1-1-1-1-1-1-1-|
|--------------|-------------|-----------------|
|--------------|-------------|-----------------|


 Verse #2
  Q  Q  E E Q    Q  Q  E Q.     Q  Q  E Q.     Q  Q  H
|--------------|--------------|--------------|------------|
|--------------|----5---------|--------------|------------|
|----3---------|--------------|----3---------|------------|
|--------------|-3-----3-3----|--------------|-3--3--3----|
|-1-----1-1-1--|--------------|-1-----1-1----|------------|
|--------------|--------------|--------------|------------|


  H    E Q.     H    E Q.     W          E. S S S Q  E E S S
|-------------|-------------|----------|----------------------|
|-------------|-------------|----------|---------------8------|
|-------------|-------------|----------|------8----------8----|
|-------------|-------------|----------|-6--6---6-6--6-----6--|
|-1----1-1----|-2----2-2----|-3--------|----------------------|
|-------------|-------------|----------|----------------------|

[ Tab from: http://www.guitartabs.cc/tabs/d/dream_theater/answer_lies_within_btab.html ]
                                 Orchestra Solo
  Q.   E Q.   E   H    +H         H    E Q  +E     H    E Q.
|---------------|-------------||-----------------|--------------|
|---------------|-3----(3)----||o----------------|--------------|
|---------------|-------------||--5----5-5--(5)\-|-3----3-3-----|
|-1----1-1----1-|-------------||-----------------|--------------|
|---------------|-------------||o----------------|--------------|
|---------------|-------------||-----------------|--------------|


                                                 Final Chorus
             1.                  2.
  H    H      H    E E E +E       Q.   S S H      H    H
|-----------|------------------||---------------|-----------|
|-----------|----------3-(3)\-o||---------------|-----------|
|-1---------|------------------||---------------|-1---------|
|------3----|-1----1-1---------||-5----5--------|------3----|
|-----------|-----------------o||--------5------|-----------|
|-----------|------------------||----------3----|-----------|


  H    H      H    H      H    H      H    H      Q  Q  Q  +Q
|-----------|-----------|-----------|-----------|-----------------|
|-----------|-----------|-----------|-----------|-----------------|
|-----------|-1---------|-----------|-1---------|----4--5--(5)----|
|-1---------|-----------|-1----5----|------3----|-5---------------|
|------3----|------4----|-----------|-----------|-----------------|
|-----------|-----------|-----------|-----------|-----------------|


  H    E Q  S S   H    E Q.     E E E E E E E E   H    E Q.
|-----------3---|-------------|-----------------|-------------|
|-------------3-|-------------|-----------------|-------------|
|-1----1-1------|-1----1-1----|-----------------|-1-----------|
|---------------|-------------|-5-5-5-5-5-5-5-5-|------3-3----|
|---------------|-------------|-----------------|-------------|
|---------------|-------------|-----------------|-------------|


  Q  Q  Q  +Q     W          W          W          +W           Wx8
|---------------|----------|----------|----------|------------|--------*|
|---------------|----------|----------|----------|------------|--------*|
|----4--5--(5)--|-1--------|----------|----------|------------|--------*|
|-5-------------|----------|----------|-1--------|-(1)--------|--------*|
|---------------|----------|-4--------|----------|------------|--------*|
|---------------|----------|----------|----------|------------|--------*|


Duration Legend
---------------
W - whole; H - half; Q - quarter; E - 8th; S - 16th; T - 32nd; X - 64th; a - acciaccatura
+ - note tied to previous; . - note dotted; .. - note double dotted
Uncapitalized letters represent notes that are staccato (1/2 duration)
Irregular groupings are notated above the duration line
Duration letters will always appear directly above the note/fret number it represents the
duration for.  Duration letters with no fret number below them represent rests.  Multi-
bar rests are notated in the form Wxn, where n is the number of bars to rest for.  Low
melody durations appear below the staff

Tablature Legend
----------------
 h   - hammer-on
 p   - pull-off
 b   - bend
 pb  - pre-bend
 r   - bend release (if no number after the r, then release immediately)
 /\  - slide into or out of (from/to "nowhere")
 s   - legato slide
 S   - shift slide
  - natural harmonic
[n]  - artificial harmonic
n(n) - tapped harmonic
 ~   - vibrato
 tr  - trill
 T   - tap
 TP  - trem. picking
 PM  - palm muting
\n/  - tremolo bar dip; n = amount to dip
 \n  - tremolo bar down
 n/  - tremolo bar up
/n\  - tremolo bar inverted dip
 =   - hold bend; also acts as connecting device for hammers/pulls
 <>  - volume swell (louder/softer)
 x   - on rhythm slash represents muted slash
 o   - on rhythm slash represents single note slash

Misc Legend
-----------
 |  - bar
||  - double bar
||o - repeat start
o|| - repeat end
*|  - double bar (ending)
 :  - bar (freetime)
 $  - Segno
 &  - Coda
Tempo markers -  = BPM(8/16=s8/s16), where s8 = swing 8ths, s16 = swing 16ths


***************************************************************************************
* Generated using Power Tab Editor by Brad Larsen - http://powertab.guitarnetwork.org *
***************************************************************************************
Comments