Dream Theater - Another Dimension Chords & Tabs

 

Another Dimension Chords & Tabs

Dream Theater Chords & Tabs

Version: 1 Type: Tab 0 ratings
1 star 2 stars 3 stars 4 stars 5 stars
comments

Another Dimension Tab

Band- Dream Theater
Song- Another Dimension

E||--------------------------|--------------------------------|
B||--------------------------|--------------------------------|
G||--------------------------|--------------------------------|
D||--------------------------|------------0-3-0---------------|
A||--------2-----------------|----------2-------0-2---0-------|
E||--0---0---4-0-0---0-1-4-1-|--0---0-4-------------4---1-4-1-|


                                                            
--------------------------|--------------------------------|
--------------------------|--------------------------------|
--------------------------|------------------2-1-----------|
--------------------------|--------3-0-----2-----2---3-----|
--------2-----------2-3-2-|--------------3---------1---2---|
--0---0---4-0-0---0-------|--0---0-----0-----------------4-|


                                                            
--------------------------|--------------------------------|
--------------------------|--------------------------------|
--------------------------|--------------------------------|
--------------------------|------------0-3-0---------------|
--------2-----------------|----------2-------0-2---0-------|
--0---0---4-0-0---0-1-4-1-|--0---0-4-------------4---1-4-1-|


                                                                  
--------------------------|--------------------------------0-----|
--------------------------|------------------------------3---0---|
--------------------------|------------------2-1-------1-------1-|
--------------------------|--------3-0-----2-----2---3-----------|
--------2-----------2-3-2-|--------------3---------1-------------|
--0---0---4-0-0---0-------|--0---0-----0-------------------------|


                                                            
--------------------------|--------------------------------|
--------------------------|--------------------------------|
--------------------------|--------------------------------|
--------------------------|------------0-3-0---------------|
--------2-----------------|----------2-------0-2---0-------|
--0---0---4-0-0---0-1-4-1-|--0---0-4-------------4---1-4-1-|


                                                            
--------------------------|--------------------------------|
--------------------------|--------------------------------|
--------------------------|------------------2-1-----------|
--------------------------|--------3-0-----2-----2---3-----|
--------2-----------2-3-2-|--------------3---------1---2---|
--0---0---4-0-0---0-------|--0---0-----0-----------------4-|


                                                            
--------------------------|--------------------------------|
--------------------------|--------------------------------|
--------------------------|--------------------------------|
--------------------------|------------0-3-0---------------|
--------2-----------------|----------2-------0-2---0-------|
--0---0---4-0-0---0-1-4-1-|--0---0-4-------------4---1-4-1-|


                                                            
--------------------------|--------------------------------|
--------------------------|------------------------------3-|
--------------------------|------------------2-1-------1---|
--------------------------|--------3-0-----2-----2---3-----|
--------2-----------2-3-2-|--------------3---------1-------|
--0---0---4-0-0---0-------|--0---0-----0-------------------|


                                                                           
--0-------1-5-4-7-12-10-13-18-22-24-21-------|---------------0------------|
----0---3------------------------------------|---------------0------------|
------1--------------------------------21----|----------------------------|
------------------------------------------21-|--8-------------------------|
---------------------------------------------|--8------------7------------|
---------------------------------------------|--6------------0------------|


                                                                          
----------------------------|----------------------------|---------------|
---------------0------------|----------------------------|---------------|
----------------------------|--3------------2------------|---------------|
--8------------2------------|--3------------0------------|--6------------|
--8------------2------------|--1------------0------------|--4------------|
--6------------0------------|----------------------------|--4------------|


                                                                               
------------------------------|------------------------|----------------------|
------------------------------|------------------------|----------------------|
------------------------------|------------------------|----------------------|
--2-2-2-2--2--2-2-2-2-2--2--2-|--3-3-3-3--3--3-3-3-3-3-|----------------------|
--2-2-2-2--2--2-2-2-2-2--2--2-|--1-1-1-1--1--1-1-1-1-1-|--2-----2-----2-------|
--0-0-0-0--0--0-0-0-0-0--0--0-|------------------------|----4-0---4-0---4-0-0-|


                                                                      
------------------------|--------------------------------------------|
------------------------|--------------------------------------------|
------------------------|--------------------------------------------|
--3-3-3-3--3--3-3-3-3-3-|--------------------------------------------|
--1-1-1-1--1--1-1-1-1-1-|--2-2-2-2-2--2--2-2-2-2-2--2--2-2-2-2-2--2--|
------------------------|--0-0-0-0-0--0--0-0-0-0-0--0--0-0-0-0-0--0--|


                                                                        
------------------------|----------------------|-----------------------|
------------------------|----------------------|-----------------------|
------------------------|----------------------|--1-1-1-1--1--1-1-1-1--|
--3-3-3-3--3--3-3-3-3-3-|--3-0---3-0---3-0---2-|--1-1-1-1--1--1-1-1-1--|
--1-1-1-1--1--1-1-1-1-1-|------0-----0-----0---|-----------------------|
------------------------|----------------------|--4-4-4-4--4--4-4-4-4--|

[ Tab from: http://www.guitartabs.cc/tabs/d/dream_theater/another_dimension_tab.html ]
                                                                   
------------------------------|-----------------------------------|
------------------------------|-------------------0--0-0--0--0-0--|
------------------------------|-----------------------------------|
--2-2-2-2--2--2-2-2-2--2-2-2--|--3-3-3-3--3--3-3--2--2-2--2--2-2--|
--2-2-2-2--2--2-2-2-2--2-2-2--|--1-1-1-1--1--1-1------------------|
--0-0-0-0--0--0-0-0-0--0-0-0--|-----------------------------------|


                                               
-------------------|--------------------------|
-------------------|--------------------------|
-------------------|--------------------------|
--3-3-3-3--3--3-3--|--2--0--------------------|
--1-1-1-1--1--1-1--|-------3--2--0------------|
-------------------|---------------4--4--1-0--|


                                                                        
---------------------------------|-------------------5-5---1-----------|
---------------------------------|-----------------------3-------------|
---------------------------------|----------------------------2-2---2--|
--3-3-3-3--3--3-3--1-------------|--3-3-3-3--3--3-3---------------0----|
--1-1-1-1--1--1-1--------6--6-6--|--1-1-1-1--1--1-1--------------------|
-------------------4-----4--4-4--|-------------------------------------|


                                                                        
--8-5-8-7-------------------------------------|------------------------|
----------9-10-------8--------------3-1-0-----|------------------------|
------------------10---9-10-9-7-5-4-------2---|------------------------|
---------------10---------------------------3-|--2----0----------------|
----------------------------------------------|-----2----2-----0-2--3--|
----------------------------------------------|--0----------0----------|


                                                     
---------------------------|------------------------|
---------------------------|------------------------|
---------------------------|------------------------|
-------0----------2--3--0--|-------0----------------|
-----2----2-----0----------|-----2----2-----0-2--3--|
--0----------0-------------|--0----------0----------|


                                                           
---------------------------------|------------------------|
---------------------------------|------------------------|
---------------------------------|------------------------|
-------0----------2--3--0--2-----|-------0----------------|
-----2----2-----0-------------3--|-----2----2-----0-2--3--|
--0----------0-------------------|--0----------0----------|


                                                     
---------------------------|------------------------|
---------------------------|------------------------|
---------------------------|------------------------|
-------0----------2--3--0--|-------0----------------|
-----2----2-----0----------|-----2----2-----0-2--3--|
--0----------0-------------|--0----------0----------|


                                                           
---------------------------------|------------------------|
---------------------------------|------------------------|
---------------------------------|------------------------|
-------0----------2--3--0--2-----|-------0----------------|
-----2----2-----0-------------3--|-----2----2-----0-2--3--|
--0----------0-------------------|--0----------0----------|


                                                     
---------------------------|------------------------|
---------------------------|------------------------|
---------------------------|------------------------|
-------0----------2--3--0--|-------0----------------|
-----2----2-----0----------|-----2----2-----0-2--3--|
--0----------0-------------|--0----------0----------|


                                                           
---------------------------------|------------------------|
---------------------------------|------------------------|
---------------------------------|------------------------|
-------0----------2--3--0--2-----|-------0----------------|
-----2----2-----0-------------3--|-----2----2-----0-2--3--|
--0----------0-------------------|--0----------0----------|


                                                     
---------------------------|------------------------|
---------------------------|------------------------|
---------------------------|------------------------|
-------0----------2--3--0--|-------0----------------|
-----2----2-----0----------|-----2----2-----0-2--3--|
--0----------0-------------|--0----------0----------|


                                                           
---------------------------------|------------------------|
---------------------------------|------------------------|
---------------------------------|------------------------|
-------0----------2--3--0--2-----|-------0----------------|
-----2----2-----0-------------3--|-----2----2-----0-2--3--|
--0----------0-------------------|--0----------0----------|


                                                     
---------------------------|------------------------|
---------------------------|------------------------|
---------------------------|------------------------|
-------0----------2--3--0--|-------0----------------|
-----2----2-----0----------|-----2----2-----0-2--3--|
--0----------0-------------|--0----------0----------|


                                                           
---------------------------------|------------------------|
---------------------------------|------------------------|
---------------------------------|------------------------|
-------0----------2--3--0--2-----|-------0----------------|
-----2----2-----0-------------3--|-----2----2-----0-2--3--|
--0----------0-------------------|--0----------0----------|


                                                                          
---------------------------|------------------------|-------------------||
---------------------------|------------------------|-------------------||
---------------------------|------------------------|-------------------||
-------0----------2--3--0--|-------0----------------|-------------------||
-----2----2-----0----------|-----2----2-----0-2--3--|-------------------||
--0----------0-------------|--0----------0----------|--0----------------||
Comments