Dream Theater - Another Day Chords & Tabs

 

Another Day Chords & Tabs

Dream Theater Chords & Tabs

Version: 7 Type: Tab

Another Day Tab

   
-------------------------------------------------------------------------------
			     Another Day - Dream Theater
-------------------------------------------------------------------------------
Tabbed by:Adam Duckworth
Email:Lilduckiwucki@hotmail.com

Tuning: Standard

I have come to the conclusion that the solos in Another Day by DT has either
mistakes or bits missing. So i decided to write my own tab for the song.
INCLUDING THE "FAST" BIT!!!!!!!

I'm Pretty sure this is very accurate. So enjoy playing an amzing solo from
an amazing song that will impress everybody that hears it.

Intro Solo                                |--3--|             
e|-7-6--------------------------------------------------------------12-14--|
B|------9---------------------------------------------------7-9~~-11-------|
G|--------8~~~~----------4-6/8--6--4--3---4-6-4~~-6--3---6-----------------|
D|-------------------4/6---------------------------------------------------|
A|-------------------------------------------------------------------------|
E|-------------------------------------------------------------------------|

Sax Solo is identical to intro solo although varies slighty because it is on a sax.

Sax Fill arr. Guitar

e|/19-19-------------------------------------------------------------------|
B|-------19-19-17-17-16----------------------------------------------------|
G|----------------------16-------------------------------------------------|
D|-------------------------------------------------------------------------|
A|-------------------------------------------------------------------------|
E|-------------------------------------------------------------------------|

Main Solo

e|-------------------------------------------------------------------|
B|-11^(12)-(12)-11-9-11^(12)~~~--9--12^(14)-12--11h12p11-------------|
G|-------------------------------------------------------11--6~~~----|
D|-------------------------------------------------------------------|
A|-------------------------------------------------------------------|
E|-------------------------------------------------------------------|

                                          |--3--|
e|-------------7~----------------------------------------------------|
B|-------4-5~~----4^(5)(4)---4-5-7--5-4------------------------------|
G|-3-4-6--------------------------------6--6-4-2-----2---------------|
D|------------------------------------------------6----6-4-4---------|
A|-------------------------------------------------------------------|
E|-------------------------------------------------------------------|
[ Tab from: http://www.guitartabs.cc/tabs/d/dream_theater/another_day_tab_ver_7.html ]
Here comes the "fast" bit
  |--------6--------||----------------12----------------|
e|-----------------------------------------------18-19-21------------|
B|--------------------------------------17-19-21---------------------|
G|----------13-15-16-----------16-18-20------------------------------|
D|-13-14-16-----------16-18-20---------------------------------------|
A|-------------------------------------------------------------------|
E|-------------------------------------------------------------------|

e|-21^(23)-21^(23)(21)-19-21^(23)--18-21-21^(23)(24)-21~~------------|
B|-------------------------------------------------------------------|
G|-------------------------------------------------------------------|
D|-------------------------------------------------------------------|
A|-------------------------------------------------------------------|
E|-------------------------------------------------------------------|

                   |---3---| 
e|-19-18~-19-21--19-16-----------------------------------------------|
B|---------------------19-16----19-16--------------------------------|
G|---------------------------18-------18-16----18-16~~---------------|
D|------------------------------------------18-----------------------|
A|-------------------------------------------------------------------|
E|-------------------------------------------------------------------|

     |---3---|
e|--------------------------------19---------------------------------|
B|--------------------------19-21------------------------------------|
G|----16-----------16-18-20------------------------------------------|
D|-16----18-16-------------------------------------------------------|
A|-------------18----------------------------------------------------|
E|-------------------------------------------------------------------|

                                                    |---5---|
e|-17~~---21-------19-------16-------14------11----------------------|
B|-----19----19-17----17-14----14-12----12-9----9-7-7-9-7-9-7--------|
G|-------------------------------------------------------------------|
D|-------------------------------------------------------------------|
A|-------------------------------------------------------------------|
E|-------------------------------------------------------------------|

   |-------10--------|
e|-------------------------------------------------------------------|
B|-5-7-5-7-5-4-5-4-5-4-----------------------------------------------|
G|----------------------6~-------------------------------------------|
D|-------------------------------------------------------------------|
A|-------------------------------------------------------------------|
E|-------------------------------------------------------------------|

| /  slide up
| \  slide down
| h  hammer-on
| p  pull-off
| ~  vibrato
| +  harmonic
| x  Mute note
|n^(x)bend note n to note x e.g 11^(12)
|n^(x)(n)bend note n to note x then back down to n e.g 4(5)(4)
============================================================================

And Thats it. Enjoy playin this song if you can the main solo is fairly difficult.
Email me if you have any comments, queries, corrections (unlikely) or if you just
want to say hi.