Dream Theater - Another Day Chords & Tabs

 

Another Day Chords & Tabs

Dream Theater Chords & Tabs

Version: 1 Type: Bass Tab 0 ratings
1 star 2 stars 3 stars 4 stars 5 stars
comments

Another Day Bass Tab

Band- Dream Theater
Song- Another Day

Intro
G----------------------------------------------------------------------------|
D----------------------------------------------------------------------------|
A----------------------------------------------------------------------------|
E--4~-2~--0~--4~--2~--4~-2~-0~-4~-2~-4~-2~-0~-4~-2~--------------------------|
B----------------------------------------------------------------------------|

   Guitar solo
G------------------------------------|---------------------------------------|
D------------------------------------|---------------------------------------|
A------------------------------------|---------------------------------------|
E--4~--2~--0~-----2~--4~--2~----0~~--|---------------------------------------|
B--------------2~------------2~------|---------------------------------------|
					Live another day...

G--------------------------------2-4-4-4-4-4---------------------------------|
D----------------------------------------------------------------------------|
A---4~---------6~------------7~------------------4~--------6~----7~----------|
E----------------------------------------------------------------------------|
B----------------------------------------------------------------------------|
  ..You won't find it here  Look another way       You won't find it here

                        SAX Solo
G---------------------|--------------------------------------|---------------|
D---------------------|--------------------------------------|---------------|
A---------------------|--------------------------------------|---------------|
E-----2~--------------|--4~---2~--0~-----2~--4~--2~----0~----|---------------|
B---------------------|---------------2~------------2~-------|---------------|
  So die another day

G----------------------------------------------------------------------------|
D----------------------------------------------------------------------------|
A----------------------------------------------------------------------------|
E----4~~--------4~~------------4~------------4~-------------0~---------------|
B----------------------------------------------------------------------------|
  The coldness of his words   The message in his silence

G----------------------------------------------------------------------------|
D----------------------------------------------------------------------------|
A---2~-----------------0~----------------------------------------------------|
E-------------------------------2~------0~-------4~-------------4~-----------|
B----------------------------------------------------------------------------|
  Face the candle to the wind 			This distance in my voice

G----------------------------------------------------------------------------|
D----------------------------------------------------------------------------|
A------------------------------------------------2~------------0~------------|
E--4~--------------2~----------------0~--------------------------------------|
B----------------------------------------------------------------------------|
  Isn't leaving you a choice       So if your looking for a chance to run
[ Tab from: http://www.guitartabs.cc/tabs/d/dream_theater/another_day_btab.html ]
		  Chorus
G---------------|-----------------------------------------------2-4-4-4-4-4--|
D---------------|------------------------------------------------------------|
A--0--0---------|--4--4--4--2-4-6-6-6-6-6-4-4-6-6-6-6-6-6-6-6-6--------------|
E----------4~---|------------------------------------------------------------|
B---------------|------------------------------------------------------------|
   away		   You won't find it here....

G-------------------------------------------------------------------|--------|
D-------------------------------------------------------------------|--------|
A-------------------------------------------------------------------|--------|
E--4-4-4-4-4-4-2-4-6-6-6-6-6-6-6-6-7-7-7-7-7-7-7-7-9-7-6-4-2-3-1---0|--------|
B----------------------------------------------------------------2--|--------|

G--------4-------------------------------------------------------------------|
D------------------------7----------------------------2----------------------|
A--2-2-2---2-2--------------------------------------------1------------------|
E--------------5-5-5-5-5---5--4-4-4-4-4-4-4-4-4---2-0---4--------------------|
B----------------------------------------------------------------------------|
						  They took pictures...

G---------4-4----------------------------------------------------------------|
D------------------------7--------6----6-6-----------------------------------|
A-2-2-2-2--------------------------------------------------------------------|
E-------------2--5-5-5-5---5--4-4---4------4--2~~--0~~--3--3-3--3-3-3-3------|
B----------------------------------------------------------------------------|

G----------------------------------------------------------------------------|
D----------------------------------------------------------------------------|
A----------------------------------------------------------------------------|
E--3-3-3----3-3-3-----3-3-3--2-2-2---2-2-2-2-2-2-2--0-0-0-0------------------|
B----------------------------------------------------------------------------|

G----------------------------------------------------------------------------|
D-----7------5-----5-5-------------------------------------------------------|
A----------------------------------------------------------------------------|
E-5-5---5--3---3-3-----3-3-2-2---2-2--2-2--2-2-2-2--2-2-2-2------------------|
B----------------------------------------------------------------------------|


G----------------------------------------------------------------------------|
D---------2-2-----------------2-2--------------------------------------------|
A-----2-5-----5-3---------2-5-----5-2----------------------------------------|
E---0-------------0-----0-------------------2~---2-2-2-2---------------------|
B----------------------------------------------------------------------------|
 ...And then surrounded to the secret...

    Another guitar solo
G----------------------------------------------------------------------------|
D----------------------------------------------------------------------------|
A-------------------------2-2-2-----------------------------------------2~---|
E-4-4-4-4-4---4-2-2-2---0---------5-5-5-2-2-2--4-4-4-4---4-4-4-2~-0-0-0------|
B----------------------------------------------------------------------------|

			Back to the intro
G-----------|--------|-------------------------------------------------------|
D-----------|--------|-------------------------------------------------------|
A-----------|-Chorus-|-------------------------------------------------------|
E--5~~--4~~-|--------|--4~-2~--0~--4~--2~--4~-2~-0~-4~-2~-4~-2~-0~-4~-2~-----|
B-----------|--------|-------------------------------------------------------|
Comments