Dream Theater - A Mind Beside Itself Chords & Tabs

 

A Mind Beside Itself Chords & Tabs

Dream Theater Chords & Tabs

Version: 1 Type: Tab 0 ratings
1 star 2 stars 3 stars 4 stars 5 stars
comments

A Mind Beside Itself Tab

   
#----------------------------------PLEASE NOTE---------------------------------#
#This file is the author's own work and represents their interpretation of the #
#song. You may only use this file for private study, scholarship, or research. #
#------------------------------------------------------------------------------##
From: hscheon@dshong (Hyun-Soo Cheon)

              Dream Theater : A Mind Beside Itself

                      iii.The Silent Man

  Transcribed by Cheon-Hyun Soo (hscheon@dshong.yonsei.ac.kr)

 

   G          D       A/C#   Cadd9
E|----3-----|-2-----|------|---------------|
B|----3--/--|-3--/--|-2--/-|-3--/---X-X-6--|
G|----4--/--|-2--/--|-2--/-|-5--/---X-X-5--|
D|----5--/--|-0--/--|-2--/-|-5--/---X-X-5--|
A|----5--/--|-------|-4--/-|-3--/---X-X-3--|
E|-3--3-----|-------|------|---------------|

 / - omit rhythm pattern..

 

*Chorus


E|--------------|-------------|-------------|------------|
B|--7--5-7--X-X-|-6--/----8-8-|-8---7-7--7--|------------|
G|--7--7-7--X-X-|-7--/----7-7-|-7---7-7--7--|-5--4-------|
D|--7--7-7--X-X-|-8--/----7-7-|-7---7-7--7--|-5--5-------|
A|--5--5-5--X-X-|-8--/--------|-------------|-------5--7-|
E|--------------|-6--/--------|-------------|-------3--5-| G 
[ Tab from: http://www.guitartabs.cc/tabs/d/dream_theater/a_mind_beside_itself_tab.html ]
E|-------------|----------------|-------------|-------------|
B|--7--------3-|----6--5----8-8-|-8---7-7--7--|-------------|
G|--7--------3-|----5--5----7-7-|-7---7-7--7--|-5--4--------|
D|--7--------3-|----5--5----7-7-|-7---7-7--7--|-5--5--------|
A|--5------0-1-|----------------|-------------|-------5--7--|
E|-----2-3-----|----------------|-------------|-------3--5--| G 

   G                         D
E|-------------------------|-------------------------------|
B|-------------8-7h8p7-----|--------10--12--10-------------|
G|--------7-9----------9-7-|--7-9s11--11--11--11s9-7---7h9-|
D|----7s9------------------|-------------------------9-----|
A|-------------------------|-------------------------------|
E|-------------------------|-------------------------------|
   A/C#                    Cadd9
E|---------9-7h9p7-5-----|----------------------|
B|-------------------8---|-----6----6-----------|
G|----6------------------|-----5h7--5-----------|
D|------7----------------|-------------7s5s3s2--|
A|-----------------------|----------------------|
E|-----------------------|----------------------|


---------------------------------------------------------------
   /\/\/\/\/\/\/\/\* Yonsei Univ. Dept. of Electronic Engin. 92
  /       /___  ___  ___ ___   
 /       /    //__/ /  //   /       hscheon@dshong.yonsei.ac.kr
 \____/ /    / \__ /__//   /__________________________________*
---------------------------------------------------------------
Comments