Dream Evil - Heavy Metal In The Night Chords & Tabs

 

Heavy Metal In The Night Chords & Tabs

Dream Evil Chords & Tabs

Version: 1 Type: Tab 0 ratings
1 star 2 stars 3 stars 4 stars 5 stars
comments

Heavy Metal In The Night Tab

   
Heavy Metal In The Night
Dream Evil
Dragon Slayer (2001)
http://www.dreamevil.mu/

Hi, Metal_uffis here. This is my first Tab... 
If you know it better Please mail me...


Intro:
e:--------------------------------------------------------------
B:--------------------------------------------------------------
G:--------------------------------------------------------------
D:--------------------------------------------------------------
A:12---------------11--------------10--------------9\7/9\7/9\7/9      
E:10-0-0-0-0-0-0-0-9-0-0-0-0-0-0-0-8-0-0-0-0-0-0-0-7\6/7\6/7\6/7

e:--------------------------------------------------------------
B:--------------------------------------------------------------
G:--------------------------------------------------------------
D:--------------------------------------------------------------
A:12---------------11--------------10--------------9\7/9\7/9\7/9      
E:10-0-0-0-0-0-0-0-9-0-0-0-0-0-0-0-8-0-0-0-0-0-0-0-7\6/7\6/7\6/7

Repeat TWO times

Heavy distortion . let ring
e:----------------------------
B:----------------------------
G:----------------------------
D:----------------------------
A:12--------------------------
E:10--------------------------

Verse:
e:-------------------------------
B:-------------------------------
G:-------------------------------
D:-------------------------------
A:-------------------------------
E:0-0-0-0-0-0-0-0-0-0-0-0-5-3-0-3

e:---------------------------
B:---------------------------
G:---------------------------
D:---------------------------
A:---------------------------  
E:0-0-0-0-0-0-0-0-5-3-0-5-0-5~
[ Tab from: http://www.guitartabs.cc/tabs/d/dream_evil/heavy_metal_in_the_night_tab.html ]
e:-------------------------------
B:-------------------------------
G:-------------------------------
D:-------------------------------
A:-------------------------------
E:0-0-0-0-0-0-0-0-0-0-0-0-5-3-0-3

e:--------------------
B:--------------------
G:--------------------
D:--------------------
A:----------------5--7
E:0-0-0-0-0-0-0-0-3--5
            X2

e:------------------------------------
B:------------------------------------
G:------------------------------------
D:------------------------------------
A:5-------7--------5--------7--------9
E:3-------5--------3--------5--------7

Chours:
e:--------------------------------------------------------------
B:--------------------------------------------------------------
G:--------------------------------------------------------------
D:--------------------------------------------------------------
A:12---------------11--------------10--------------9\7/9\7/9\7/9      
E:10-0-0-0-0-0-0-0-9-0-0-0-0-0-0-0-8-0-0-0-0-0-0-0-7\6/7\6/7\6/7

e:--------------------------------------------------------------
B:--------------------------------------------------------------
G:--------------------------------------------------------------
D:--------------------------------------------------------------
A:12---------------11--------------10--------------9\7/9\7/9\7/9      
E:10-0-0-0-0-0-0-0-9-0-0-0-0-0-0-0-8-0-0-0-0-0-0-0-7\6/7\6/7\6/7

Heavy distortion . let ring
e:----------------------------
B:----------------------------
G:----------------------------
D:----------------------------
A:12--------------------------
E:10--------------------------

That's all for now, but there will be more...
Comments