Dream Child - Train Of Fools Chords & Tabs

 

Train Of Fools Chords & Tabs

Dream Child Chords & Tabs

Version: 1 Type: Tab 0 ratings
1 star 2 stars 3 stars 4 stars 5 stars
comments

Train Of Fools Tab

   
****************************************************************************
*                       DREAM CHILD  -  Train of Fools                     *
****************************************************************************
Album : TORN BETWEEN TWO WORLDS
                                           Transcribed by Dominique LEURQUIN

Tablature explanation

             p : pulling-off
             h : hammer-on
             ~ : vibrato
             / : slide up
             \ : slide down
             = : sustained
         b()rb : bend until the note in brackets, then release bend
             T : tapping
            x8 : repeat 8 times the part in [ ]
            Pm : palm muting


INTRO

Riff 1

E)-------------------------------------------------------
B)-------------------------------------------------------
G)-------------------------------------------------------
D)-------------------------------------------------------
A)---5-5-5p2p0-5--5-5-5-5----5---------------------------
E)-0-----------------------2---2--2-2-2--2-2-3-3-3-2-2---

Riff 2

E)-------------------------------------------------------
B)-------------------------------------------------------
G)-------------------------------------------------------
D)---------------------------5------4-----7-----5--------
A)---5-5-5p2p0-5--5-5-5-5--3----3-3---5-5---3-3---3-3\-2-
E)-0-----------------------------------------------------

Riff 1

Riff 3 (1st ending)
                           1st ending   2nd ending   (whammy bar)
E)-----------------------------------)---------------------------
B)-----------------------------------)---------------------------
G)-----------------------------------)---------------------------
D)-------------------------5=-7--9---)--5=-7--9--9=\--------//---
A)---5-5-5p2p0-5--5-5-5-5--3=-5--6---)--3=-5--6--7=\\------//----
E)-0---------------------------------)--------------\\----//-----
                                                     \\--//
Riff 1
Riff 2

Riff 1
Riff 3 (2nd ending)



INTERLUDE

Riff 4 (Clean, let ring)

E)----------0--------------------0-----------------0-------3-----2------0----
B)---0--------0-----------0--------3---------3-------3-------3-----3------3~-
G)--------------0--------------------0-----------------0---------------------
D)------2---------------------2--------0--------0--------0-----0-----0-------
A)------------------2/-3------------------2----------------------------------
E)-0-------------------------------------------------------------------------

E)----------0--------------------0-----------------0-------------------------
B)---0--------0-----------0--------3---------3-------3------3----------------
G)--------------0--------------------0-----------------0---------------------
D)------2---------------------2--------0--------0--------0-------------------
A)------------------2/-3------------------2----------------------------------
E)-0-------------------------------------------------------------------------




VERSE

Riff 5 (x2)

E)---------------------------------------------------------------------------
B)-5---------5=---------------------------------------3-3-----------3-3------
G)-4---------4=---------------------------------------2-2-----------2-2------
D)-2---------2=--5---------4=--5---------5=-----------0-0-----------0-0------
A)-2---------2=--3-3-3-3-3-3=--2-2-2-2-2-2=-----------x-x-----------x-x------
E)-0-0-0-0-0-0=-------------------------------2-2-2-2-2-2---2-2-2-2-2-2------

     Pm.....       Pm.....       Pm.....      Pm.....       Pm.....

Riff 6

E)---------------------------------------------------------------------------
B)---------------------------------------------------------------------------
G)---------------------------------------------------------------------------
D)---------------------------------------------------------------------5=-7-9
A)-7---5---7----0--3-2---7---5---7----0--3-5---10---9---10-----0--3-2--3=-5-6
E)---0---0----0------------0---0----0-------------0---0------0---------------




Riff1
Riff2

Riff1
Riff3 (2nd ending)

Riff4 (clean, let ring)

Verse  (Riff 5 x2)

Riff1
Riff2

Riff1
Riff3 (1st ending)



BRIDGE : Riff 7 (x4)

E)-------------------------------------------
B)-5---------5=------------3-3-----------3-3-
G)-4---------4=------------2-2-----------2-2-
D)-2---------2=------------0-0-----------0-0-
A)-2---------2=------------x-x-----------x-x-
E)-0-0-0-0-0-0=----2-2-2-2-2-2---2-2-2-2-2-2-

     Pm.....       Pm.....       Pm.....      
[ Tab from: http://www.guitartabs.cc/tabs/d/dream_child/train_of_fools_tab.html ]
E)-------------------------------------------------------
B)-------------------------------------------------------
G)-------------------------------------------------------
D)---------9----------7----------5----------7----------9-
A)---------7----------5----------3----------5----------7-
E)-0-0-0-0----0-0-0-0----0-0-0-0----0-0-0-0----0-0-0-0---

   Pm.....    Pm.....    Pm.....    Pm.....    Pm.....

E)------------------------------------
B)------------------------------------
G)------------------------------------
D)---------7----------12----------11--
A)---------5----------10-----------9--
E)-0-0-0-0----0-0-0-0-----0-0-0-0-----

   Pm.....    Pm.....     Pm.....     




GUITAR SOLO

      T          x8     T          x4     T          x4     T          x8  \      
E)-[-19-12-15p12-]---[-20-12-15p12-]---[-19-12-15p12-]---[-17-10-14p10-]--  |
B)------------------------------------------------------------------------  | 
G)------------------------------------------------------------------------  |
D)------------------------------------------------------------------------  |
A)------------------------------------------------------------------------  |
E)------------------------------------------------------------------------  |
                                                                            |
      T          x4     T          x4     T        x8     T        x4       |
E)-[-19-10-14p10-]---[-17-10-14p10-]---[-15-8-12p8-]---[-17-8-12p8-]------  |
B)------------------------------------------------------------------------  |
G)------------------------------------------------------------------------  |> x2
D)------------------------------------------------------------------------  |
A)------------------------------------------------------------------------  |
E)------------------------------------------------------------------------  |
                                                                            |
      T        x4     T        x16                                          |
E)-[-15-8-12p8-]---[-14-7-11p7-]---||                                       |
B)---------------------------------||                                       |
G)---------------------------------||                                       |
D)---------------------------------||                                       |
A)---------------------------------||                                       |
E)---------------------------------||                                       |
                                                                           /

E)-----------------------------------------------------12---------------------
B)----------------------------------------------10/-12----15-b(17)rb-15p13-15-
G)-12p9----9~-------------14-b(16)rb-14p12-14~--------------------------------
D)------12----12-12-12-12-----------------------------------------------------
A)----------------------------------------------------------------------------
E)----------------------------------------------------------------------------

                                                          x2               x3
E)------------------------------------19~---[-15h19p15----]--[-15h19p15----]--
B)-13h15p13\12--12h13p12-----15h19p15-------[----------19-]--[----------19-]--
G)-----------------------14~--------------------------------------------------
D)----------------------------------------------------------------------------
A)----------------------------------------------------------------------------
E)----------------------------------------------------------------------------

E)--------------------------------------------------------------------------------
B)-15h19p15h19p15-----------------------------------------------------------------
G)----------------17-b(19)rb-17-17~----------19~-16h17h19p17p16-------------------
D)----------------------------------16h19p16--------------------19p17p16----------
A)-----------------------------------------------------------------------17-b(19)\
E)--------------------------------------------------------------------------------


Riff1   \
Riff2   /  x2

Riff1
Riff3

E)------------------------------------------------------------------------------||
B)------------------------------------------------------------------------------||
G)------------------------------------------------------------------------------||
D)-2--------------------2------5--7-5-4-2------------------2---------5--7-9-9\--||
A)-2---------4--4/-5--4-2------3--5-3-2-2-------4--4/-5--4-2---------3--5-6-7\--||
E)-0---------2--2/-3--2-0---------------0-------2--2/-3--2-0--------------------||

    Pm......              Pm...           Pm....             Pm......
    (E string)
Comments