Draw - Silver Screen Chords & Tabs

 

Silver Screen Chords & Tabs

Draw Chords & Tabs

Version: 1 Type: Tab 0 ratings
1 star 2 stars 3 stars 4 stars 5 stars
comments

Silver Screen Tab

   
-------------------------------------------------------------------------------
			     DRAW - Silver Screen
-------------------------------------------------------------------------------

Tabbed by: Onlyonehere
Email: miranda.harding@btopenworld.com
       pixiedamage@hotmail.com

Tuning: Standard

Work out strumming patterns and rhythm patterns yourself

INTRO (x2)
e|--------------3----0----2----0--|
B|--------------3----1----3----1--|
G|--------------0----0----2----0--|
D|-------0h2----0----2--0-0----2--|
A|--0h2---------2--3-3-------3-3--|
E|------------3-3-----------------|

CHORUS (ALSO PLAY FOR SECOND PART OF INTRO)
For strumming pattern listen to CD
    G  D  Am
e|--3--2--0--|
B|--3--3--1--|
G|--0--2--2--|
D|--0--0--2--|
A|--2-----0--|
E|--3--------|
[ Tab from: http://www.guitartabs.cc/tabs/d/draw/silver_screen_tab.html ]
VERSE (x4)
    G  Em7  Dsus4/F#  Cadd9
e|--3---3------3--------3--|
B|--3---3------3--------3--|
G|--0---0------2--------0--|
D|--0---2------0--------2--|
A|--2---2------0--------3--|
E|--3---0------2-----------|

BRIDGE
    Am   C   Am    C   Am    C    D    D
e|--0----0----0----0----0----0----2----2--|
B|--1----1----1----1----1----1----3----3--|
G|--2----0----2----0----2----0----2----2--|
D|--2----2----2----2----2----2----0----0--|
A|--0----3----0----3----0----3------------|
E|----------------------------------------|

SOLO (x4)
e|--------------------------------------------------------|
B|--------------------------------------------------------|
G|---------0-2p0-----4--0-2p0-----------------------------|
D|-----5----------5------------2-------2---4---5---7---5--|
A|--------------------------------0--0---0---0---0---0----|
E|--3-----------------------------------------------------|

| /  slide up
| \  slide down
| h  hammer-on
| p  pull-off
| ~  vibrato
| +  harmonic
| x  Mute note
Comments