Drake Nick - Which Will Chords & Tabs

 

Which Will Chords & Tabs

Drake Nick Chords & Tabs

Version: 1 Type: Tab 1 rating
1 star 2 stars 3 stars 4 stars 5 stars
comments

Which Will Tab

   
Nick drake - which will

tunning: D A D G B e

A:

|----------2------------2----------2--------2---2---2----|
|----------3------------3----------3--------3---3---3----|
|----------0------------0----------0--------2-2-2---2----|
|-------0-----0------0----------0-----------------0------|
|--0^2-----------0^2-------0^2--------0---------------0--|
|---------------------------------------0----------------|

B:

|----------2------------2----------2-------------2---2----|
|----------3------------3----------3-------------3---3----|
|----------0------------0----------0--0^2--------2-2-2----|
|-------0-----0------0----------0---------0------------0--|
|--0^2-----------0^2-------0^2--------------0-------------|
|---------------------------------------------0-----------|

C:
[ Tab from: http://www.guitartabs.cc/tabs/d/drake_nick/which_will_tab.html ]
|--------3------------------------3--------2---------|
|--------3---------3--------------3--------3---------|
|--------0----0----0-----0--------2----2---2----2----| 
|-----------0------0---0--------2----2--------2------|
|------2----------------------0----------0--------0--|
|--0^2----------2----------2-------------------------|

D:

|-------------------------------------------------|
|--8-8--------7----------7/8------------3---------|
|-------0-0-----7--0-0---------0------------------|
|------0---0------0---0-------0--0----------2-2---|
|---------------------------------0--------2---2--|
|--5----------5----------5------------2-----------|

e:

|-----------------------------------------|
|--8------8-------7-------8-------8-------|
|--0---0--0---0---7---7---0---7---0-------|
|--0--0---0--0----0--0----0--0----0----0--|
|------------------------------------0----|
|--5----5-------5-------5-------5---------|



Intro - A,B,A,C,D,B
Verse - A,A,A,C
Chorus("and tell me now...") - E,A,B

That's it 
tabbed by Elad Matari
eladmat@walla.co.il

Comments