Drake Nick - Voice From The Mountain Chords & Tabs

 

Voice From The Mountain Chords & Tabs

Drake Nick Chords & Tabs

Version: 2 Type: Tab 0 ratings
1 star 2 stars 3 stars 4 stars 5 stars
comments

Voice From The Mountain Tab

   
#----------------------------------PLEASE NOTE---------------------------------#
#This file is the author's own work and represents their interpretation of the #
#song. You may only use this file for private study, scholarship, or research. #
#------------------------------------------------------------------------------##
From: Harlan L Thompson 

VOICE FROM THE MOUNTAIN- Nick Drake

PART 1:                                PART 2:
   A/E             B1    B2                  D/A             A/E
E ---------------------------------    E ----------------------------------
B ---2-2-----2-----2-----0---------    B ---3-3-----3-----2----------------
G ---2-2-----2-----4-----4-------4-    G ---2-2-----2-----2-----------2----
D ---2-2-2-----2-----4-----4---4---    D ---0-0-0-----0---2-2-2-----2---2--
A ---------0-----0-0---0-0---0-----    A -0-------0-----0-------0----------
E -0-------------------------------    E ----------------------------------

PART 3:                                   FANCY RIFF:
E ----------------------------------     E -------------
B ---3-3-----3-----2-----2----2-----     B -0h2---------
G ---2-2-----2-----2-----2----2-----     G -----4-----0-
D ---5-5-5-----4---2-2---2-2----2---     D -------4-1---
A ---------0-----0-----0----0-------     A -------------
E -0--------------------------------     E -------------


 



(from Time of No Reply)
(sent by Harlan at harlant@hawaii.edu)


From: bike@xs4all.nl (bike)

Voice from the mountain - Nick Drake
Album - Time of no reply
[ Tab from: http://www.guitartabs.cc/tabs/d/drake_nick/voice_from_the_mountain_tab_ver_2.html ]
I have figured out how I can play that song and not what Nick's doing. First
of all, I'm not so good at playing, and second, I can't hear it exact enough.
Basically this means that I got the chords right but the picking wrong. (He's
playing so many more notes). Any suggestions welcome.

Intro:
 
E 0-0--0--|0--1--1-|
B 1-1--1--|1--1--1-|
G --------|--------|
D --------|--------|
A 3-333333|3-33-33-|
E --------|--------|  Several times

  C           F

 
E 0-0--0--|0--0--0-|1-1--1--|0--3--1-|--------|--------|--------|--------|
B 1-1--1--|1--1--1-|1-1--1--|1--1--1-|--------|--------|--------|--------|
G --------|--------|--------|--------|---%----|---%----|---%----|---%----|
D --------|--------|--------|--------|--------|--------|--------|--------|
A 3-333333|3-33-33-|3-333333|3--3--3-|--------|--------|--------|--------|
E --------|--------|--------|--------|--------|--------|--------|--------|

  C                  F       C C+9 F 


                
                                
                                                 
 
E 1--1--1-|0--0--0-|1--1--1-|0--0--0-|--------|--------|--------|--------|
B 1--1--1-|1--1--1-|3--3--3-|1--1--1-|--------|--------|--------|--------|
G --------|--------|--------|--------|---%----|---%----|---%----|---%----|
D --------|--------|--------|--------|--------|--------|--------|--------|
A 3-33-33-|3-33-33-|1-11-11-|3-33-33-|--------|--------|--------|--------|
E --------|--------|--------|--------|--------|--------|--------|--------|

  F        C        Bb       C       

                
                       
                                 

Instumental:

E 0-0--0--|0--1-1h3p1---|
B 1-1--1--|1--1------(3)|
G --------|-------------|
D --------|-------------|
A 3-333333|3--3-3-------|
E --------|-------------|  Several times



Any comments, suggestions can be mailed to : bike@hacktic.nl or posted in
this newsgroup.

Comments