Drake Nick - Parasite Chords & Tabs

 

Parasite Chords & Tabs

Drake Nick Chords & Tabs

Version: 2 Type: Tab 0 ratings
1 star 2 stars 3 stars 4 stars 5 stars
comments

Parasite Tab

   
#----------------------------------PLEASE NOTE---------------------------------#
#This file is the author's own work and represents their interpretation of the #
#song. You may only use this file for private study, scholarship, or research. #
#------------------------------------------------------------------------------##
From: Harlan L Thompson 

PARASITE- Nick Drake

TUNING: D A D G D F# (capo 1st fret), or C G C F C E (capo 3rd fret)

Figure I:
F#:||--------0----|-------0----|-------0----|-------1p0--|-------1p0----||
D :||-----0-----0-|----0-----0-|----0-----0-|----0-----0-|----0-----0---||
G :||.-0h2--------|-0h2--------|-0h2--------|-0h2--------|-0h2---------.||
D :||.----0-----0-|----0-----0-|----0-----0-|----0-----0-|----0-----0--.||
A :||--3-----3----|-2-----2----|-1-----1----|-0-----0----|-0-----0------||
D :||-------------|------------|------------|------------|--------------||


Figure II:
F#:||--------------|--------------|--------------|--------------|-------1p0--|
D 
:||--------1-----|--------1-----|--------1-----|--------1-----|----0-----0-|
G 
:||.-3--3--------|--3--3--------|--3--3--------|--3--3--------|-0h2--------|
D 
:||.-------1-----|--------1-----|--------1-----|--------1-----|----0-----0-|
A 
:||--1--1--------|--1--1--------|--1--1--------|--1--1--------|-0-----0----|
D 
:||--------------|--------------|--------------|--------------|------------|
                                    
F#:-------1p0----||
D :----0-----0---||
G :-0h2---------.||
D :----0-----0--.||
A :-0-----0------||
D :--------------||




From: Mike 
Date: Thu, 8 Jun 1995 12:19:52 GMT+0000

PARASITE- Nick Drake
[ Tab from: http://www.guitartabs.cc/tabs/d/drake_nick/parasite_tab_ver_2.html ]
TUNING: D A D G D F# (capo 1st fret), or C G C F C E (capo 3rd fret)

VERSE/INTRO:-                                                         
       
E-|-------------|-0-----------|-------------|-0-----------|
C-|-------0-----|-------0-----|-------0-----|-------0-----|
F-|-5-----------|-5-----------|-0h4---------|-4-----------|
C-|-------0-----|-------0-----|-------0-----|-------0-----|
D-|-0---0---0---|-0---0---0---|-0---0---0---|-0---0---0---|
C-|-------------|-------------|-------------|-------------|
                                                           
                                                           
E-|-------------|-0-----------|-------------|-1p0---------|
C-|-------0-----|-------0-----|-------0-----|-------0-----|
F-|-0h3---------|-3-----------|-0h2---------|-2-----------|
C-|-------0-----|-------0-----|-------0-----|-------0-----|
D-|-0---0---0---|-0---0---0---|-0---0---0---|-0---0---0---|
C-|-------------|-------------|-------------|-------------|


CHORUS:-                                                   
E-|-------------|-------------|-------------|-------------|
C-|-------0-----|-------0-----|-------0-----|-------0-----|
F-|-------------|-------------|-------------|-------------|
C-|-------1-----|-------1-----|-------1-----|-------1-----|
D-|-1---1---1---|-1---1---1---|-1---1---1---|-1---1---1---|
C-|-------------|-------------|-------------|-------------|
                                                                      
         
                                                                      
         
E-|--------------|-1p0---------|-------------|-1p0---------|
C-|--------0-----|-------0-----|-------0-----|-------0-----|
F-|--0h2---------|-2-----------|-0h2---------|-2-----------|
C-|--------0-----|-------0-----|-------0-----|-------0-----|
D-|--0---0---0---|-0---0---0---|-0---0---0---|-0---0---0---|
C-|--------------|-------------|-------------|-------------|
Comments