Drake Nick - Clothes Of Sand Chords & Tabs

 

Clothes Of Sand Chords & Tabs

Drake Nick Chords & Tabs

Version: 2 Type: Tab 0 ratings
1 star 2 stars 3 stars 4 stars 5 stars
comments

Clothes Of Sand Tab

#----------------------------------PLEASE NOTE---------------------------------#
#This file is the author's own work and represents their interpretation of the #
#song. You may only use this file for private study, scholarship, or research. #
#------------------------------------------------------------------------------##
From: sunking@gate.net (E. D. Harvey)
Date: 10 Jun 1995 17:29:42 -0500
Subject: TAB: "Clothes of Sand" Nick Drake

----- Included text -----

This is "Clothes of Sand", off the Nick Drake album "Time of No Reply".
The tuning is DGDGAD, with a capo on the 3rd fret.





                           CLOTHES OF SAND



|-------------------0-|-------------------------|-------3-------------|
|---------------------|-------------------------|-------0-------------|
|----------0-----0----|0-----0-----------------0|----0----------------|
|-------5-----5-------|---5-----------------3---|-3-------------------|
|----0----------------|---------0--------0------|---------------------|
|-5-------------------|------------0--3---------|----------(3)--------|
 Intro (play 2X)




|---------------------|0------------------------|---------------------|
|---------------------|-------------------------|---------------------|
|-------------0-----0-|---0-----0---------------|-0-----0-----------0-|
|----------5-----5----|------5-----------------3|----3-----------5----|
|-------0-------------|------------0--------0---|-------------0-------|
|-3--5----------------|---------------0--3------|----------5----------|

 


|--------------(1)----|---0---------------------|---------------0-----|
|---------------------|-------1-----------------|-------------------0-|
|---------------0-----|----------0--------------|------0--------------|
|------------3-----3--|1------------3-----------|---4-----4-----------|
|0--------3-----------|----------------3--------|2-----------2--------|
|---0--1--------------|----1--------------1--0--|---------------0-----|

 



|---------------------|---------0---------------|---------------------|
|---------------------|-------------------------|---------------------|
|0--------------------|0-----0-----0-----0------|----------0-----0----|
|---4--------------5--|---5-----------5---------|-------3-----3-------|
|------2--------0-----|---------------------0---|----0----------------|
|---------0--5--------|------------------------0|-3-------------------|

 



|---------------------|-------------------------|---------------------|
|---------------------|-------------------------|---------------------|
|---------0-----------|------0-----------------0|----------------0----|
|------5--------------|---3-----3--1--------4---|-4-----------5-------|
|---0--------0--------|3-----------------2------|----2-----0----------|
|5--------------0--1--|---------------0---------|-------5-------------|

  

[ Tab from: http://www.guitartabs.cc/tabs/d/drake_nick/clothes_of_sand_tab_ver_2.html ]
                          REFRAIN
|------0--------------|-------------------------|---------------------|
|---------0-----------|-------------------------|---------------------|
|---0--------0--------|------------0------------|----0-----0----------|
|5--------------5-----|---------3-----3--1------|-3-----3-------------|
|------------------0--|------3-----------------0|---------(0)---------|
|------5--------------|0--1-----------------3---|---------------------|

                          Clothes    of    sand    




|------------------0--|-------------------------|-------0-------------|
|---------------------|0------------------------|----------1----------|
|---------0-----0-----|---0--------------------0|-------------0-------|
|------5-----5--------|------5--------------3---|-3--1-----------3----|
|---0-----------------|---------0--------3------|-------------------3-|
|5-----------------5--|------------0--1---------|-------1-------------|




|---------------------|0------------------------|---------------------|
|---------------------|---0---------------------|---------------------|
|------------0--------|------0------------------|-0-----------------0-|
|---------4-----4-----|---------4--------------3|----3--1--------3----|
|------2-----------2--|------------2--------3---|-------------0-------|
|1--0-----------------|0--------------0--1------|----------3----------|

 




|---------------------|-------------------------|---------------------|
|---------------------|-------------------------|---------------------|
|---0-----------0-----|------------0------------|----0----------------|
|3-----------5--------|---------2---------------|-3-----3--1--------4-|
|---------0-----------|0-----0--------0--------3|----------------2----|
|------5-----------3--|---2--------------0--1---|-------------0-------|





|---------------------|------0------------------|------------------3--|
|---------------------|---------0---------------|------------------0--|
|0-----------------0--|---0--------0------------|---------0-----0-----|
|---4-----------5-----|5--------------5---------|------3-----3--------|
|------2-----0--------|------------------0------|---0-----------------|
|---------5-----------|------5--------------0---|3--------------------|

                                                   [then go directly to
                                                   intro, but play into
                                                   only once, and onto
                                                   2nd verse]
 ENDING
|---------------------|------0------------------|-----------------(0)-|
|---------------------|---------0---------------|-----------------(0)-|
|-------------------0-|---0--------0------------|---------0-----0--0--|
|----------------5----|5--------------5---------|------3-----3-----5--|
|-------------0-------|------------------0------|---0-----------------|
|----------5----------|------5--------------0---|3-----------------5--|

           so    far    from    me
Comments