Drake Bell - Found A Way Chords & Tabs

 

Found A Way Chords & Tabs

Drake Bell Chords & Tabs

Version: 1 Type: Tab

Found A Way Tab

Verse
|----------------------------------------|
|----------------------------------------|
|------9-----9---------------------------|
|--9-9-9-9-9-9------7-----7------9-----9-|
|--7-7-7-7-7-7--7-7-7-7-7-7--9-9-9-9-9-9-|
|---------------5-5-5-5-5-5--7-7-7-7-7-7-|


Pre Chours
|--4-4-4-4--2-2-2-2--0-0-0-0--0----|
|--5-5-5-5--2-2-2-2--2-2-2-2--1----|
|--6-6-6-6--3-3-3-3--2-2-2-2--2----|
|--6-6-6-6--4-4-4-4--2-2-2-2--2----|
|--4-4-4-4--4-4-4-4--0-0-0-0--0----|
|-----------2-2-2-2----------------|


Chours
|----0------2--------0--------0--|---2-------0---0-|
|----0------2--------2--------1--|---2-------2---1-|
|----1------3--------2--------2--|---3-------2---2-|
|----2------4--------2--------2--|---4-------2---2-|
|----2------4--------0--------0--|---4-------0---0-|
|-0--0------2--------------------|---2-------------|

[ Tab from: http://www.guitartabs.cc/tabs/d/drake_bell/found_a_way_tab.html ]
Interlude
|---------------------|
|---------------------|
|---------------------|
|--2--22---2-22--2-22-|
|--2--22---2-22--2-22-|
|--0--00---0-00--0-00-|


Solo
|------------------------------------------------|
|-5----------------------------------------------|
|-7b~~~~~~~~~~----7--------------------------7---|
|---------------7----------------5-7-5-7-7-5-----|
|--------------------5-7-5-7-7-5-----------------|
|------------------------------------------------|

|-12----------12--12----------------------------------------------|
|-15b-15p12h15--12-----------------------------12------------12---|
|--------------------------------------14p12h14--14--14p12p14--14-|
|-------------------12-14-12-14-14-12-----------------------------|
|-----------------------------------------------------------------|
|-----------------------------------------------------------------|