Dragon - Rain Chords & Tabs

 

Rain Chords & Tabs

Dragon Chords & Tabs

Version: 1 Type: Bass Tab 0 ratings
1 star 2 stars 3 stars 4 stars 5 stars
comments

Rain Bass Tab

DRAGON - "Rain" - Bass Tab

Common Time(4/4)
Standard Tuning(EADG)


INTRO/VERSES 1 & 2:
|------------------|-----------------|-----------------|
|*-----------------|-----------------|-----------------|
|*-----------------|-6-6-6-6---------|-----------------|
|--7-7-7-7-7-7-7-7-|---------4-4-4-4-|-7-7-7-7-7-7-7-7-|
   1 & 2 & 3 & 4 &   1 & 2 & 3 & 4 &   1 & 2 & 3 & 4 &

               (x4)
|------------------|
|-----------------*|
|-7-7-7-7---------*|
|---------5-5-5-5--|
  1 & 2 & 3 & 4 &


1ST PRE-CHORUS:
|------------------|-----------------|-----------------|
|*-----------------|-----------------|-----------------|
|*-4-4-4-4-4-4-4-4-|-4-4-4-4-4-4-4-4-|-7-7-7-7-7-7-7-7-|
|------------------|-----------------|-----------------|
   1 & 2 & 3 & 4 &   1 & 2 & 3 & 4 &   1 & 2 & 3 & 4 &

               (x2)
|------------------|
|-----------------*|
|-7-7-7-7-7-7-7-7-*|
|------------------|
  1 & 2 & 3 & 4 &


CHORUS/END:
|------------------|-----------------|-----------------|
|*-----------------|-----------------|-----------------|
|*-7-7-7-7-7-7-7-7-|-7-7-7-7-6-6-6-6-|-4-4-4-4-4-4-4-4-|
|------------------|-----------------|-----------------|
   1 & 2 & 3 & 4 &   1 & 2 & 3 & 4 &   1 & 2 & 3 & 4 &
[ Tab from: http://www.guitartabs.cc/tabs/d/dragon/rain_btab.html ]
|-----------------|-----------------|-----------------|
|-----------------|-----------------|-----------------|
|-4-4-4-4---------|-----------------|-----------------|
|---------7-7-7-7-|-5-5-5-5-5-5-5-5-|-5-5-5-5-4-4-4-4-|
  1 & 2 & 3 & 4 &   1 & 2 & 3 & 4 &   1 & 2 & 3 & 4 &

|-----------------|------------------|
|-----------------|-----------------*|(x2 Chorus)
|-----------------|-----------------*|(x4 End)
|-2-2-2-2-2-2-2-2/|-7-7-7-7-7-7-7-7--|
  1 & 2 & 3 & 4 &   1 & 2 & 3 & 4 &


2ND & 3RD PRE-CHORUS:
|------------------|-----------------|-----------------|
|*-----------------|-----------------|-----------------|
|*-4-4-4-4-4-4-4-4-|-4-4-4-4-4-4-4-4-|-7-7-7-7-7-7-7-7-|
|------------------|-----------------|-----------------|
   1 & 2 & 3 & 4 &   1 & 2 & 3 & 4 &   1 & 2 & 3 & 4 &

               
|------------------|
|-----------------*|(x1 2nd Pre-Chorus)
|-7-7-7-7-7-7-7-7-*|(x3 3rd Pre-Chorus)
|------------------|
  1 & 2 & 3 & 4 &   

|-----------------|-----------------|-----------------|
|-----------------|-----------------|-----------------|
|-4-4-4-4-4-4-4-4-|-4-4-4-4-4-4-4-4-|-7-7-7-7-7-7-7-7-|
|-----------------|-----------------|-----------------|
  1 & 2 & 3 & 4 &   1 & 2 & 3 & 4 &   1 & 2 & 3 & 4 &

|-----------------|
|-----------------|
|-7-7-7-7-----4-6-|
|---------5-7-----|
  1 & 2 & 3 & 4 &


By: Johari Taylor
E-mail: viking@powerup.com.au
More Bass Tabs: http://www.powerup.com.au/~viking/basstab.htm




Comments